ConnexionConnexionInscription
B E A D G
171 connectés Aller à Sweepyto Guitare

Red Hot Chili Peppers - Apache Rose Peacock Couplet

Publié par le
02/12/2007
31828 vues
Débutant 4
Vitesse NormaleNormal speed Vitesse RalentieSlow down speed
G---------------------|---------------------|
D---------------------|---------------------|
A-----------------X-2-|---------------------|
E-0---X-0---X-3-------|-0---X-0---X-5---X-3-|

G---------------------|---------------------|
D---------------------|---------------------|
A-----------------X-2-|---------------------|
E-0---X-0---X-3-------|-0---X-0-----X-5-5-3-|
Un riff très très puissant que vos pauvres enceintes ne doivent pas trop apprécier héhé. Ce plan est un peu difficile à effectuer mais c'est tellement bon que vous allez bien faire l'effort de le bosser un peu non? :oP . Sentez du funk pousser dans vos mains !

0 Commentaires : réagissez !

1 2 3 4 5
1 note
Notes pour Apache Rose Peacock Couplet - Red Hot Chili Peppers - Cours de basse vidéo | Slappyto : 5/5 sur 1 note
Aucun commentaire !

En Live

Remitobass vient tout juste de rejoindre la communauté Slappyto. Bienvenue ! il y a 10 heures
Papihendrix vient tout juste de rejoindre la communauté Slappyto. Bienvenue ! il y a 3 jours
Services vient tout juste de rejoindre la communauté Slappyto. Bienvenue ! il y a 1 semaine
Haga187 vient tout juste de rejoindre la communauté Slappyto. Bienvenue ! il y a 1 semaine
Aline vient tout juste de rejoindre la communauté Slappyto. Bienvenue ! il y a 1 semaine
Spa53 vient tout juste de rejoindre la communauté Slappyto. Bienvenue ! il y a 3 semaines