ConnexionConnexionInscription
B E A D G
132 connectés Aller à Sweepyto Guitare

Muse - Supermassive Black Hole - refrain

Publié par le
04/07/2007
32899 vues
Moyen 3
Vitesse NormaleNormal speed Vitesse RalentieSlow down speed
G|----------------|----------------|----------------|--------------|
D|----7-----7-7-6-|----5-----------|----9-----8-7-5-|--------------|
A|----------------|----------------|----------------|7-------------|
E|5-5---5-5-------|3-3---3-3-5-5-6-|7-7---7-7-------|--0-0-2--3--4-|
i i m i i m m m i i m i i i i i i i m i i m m m i i i i i i

G|----------------|----------------|----------------|---------------|
D|----7-----7-7-6-|----5-----------|----9-----8-7-5-|-----------5-4-|
A|----------------|----------------|----------------|---------------|
E|5-5---5-5-------|3-3---3-3-5-5-6-|7-7---7-7-------|-7-7-6-5-3-----|0
i i m i i m m m i i m i i i i i i i m i i m m m i i i i i m m i
Quoi, ce plan-ci en Moyen 3? Eh oui, je profite de la construction de ce plan pour travailler: le jeu à un doigt! Ici, plutôt que d'alterner index et majeur, vous allez bosser en jouant la corde de Mi avec l'index et les cordes de Ré et de Mi avec le majeur. L'intérêt? Muscler vos petits doigts chéris et travailler la fluidité. Bon après, vous pouvez décider de ne pas le faire, reste un plan sympatoche pour s'échauffer gentiment en hiver! ^^

1 Commentaire

1 2 3 4 5
6 notes
Notes pour Supermassive Black Hole - refrain - Muse - Cours de basse vidéo | Slappyto : 5/5 sur 6 notes
#1
08/08/2015 17:48:24

J'la oue moins simplifiée (autour de 10sec), sinon sympas!

0
0

En Live

Flea888 vient tout juste de rejoindre la communauté Slappyto. Bienvenue ! il y a 9 heures
Skydrover a commenté le topic [30 W tout lampes, suffisant ?] de skydrover il y a 9 heures
Golmout80 vient tout juste de rejoindre la communauté Slappyto. Bienvenue ! il y a 20 heures
Skydrover a commenté le topic [30 W tout lampes, suffisant ?] de skydrover il y a 21 heures
Skydrover a commenté le topic [30 W tout lampes, suffisant ?] de skydrover il y a 22 heures