ConnexionConnexionInscription
B E A D G
118 connectés Aller à Sweepyto Guitare

Stevie Wonder - Master blaster, 2° pont

Publié par le
22/08/2007
37269 vues
Moyen 4
Vitesse NormaleNormal speed Vitesse RalentieSlow down speed
G|-----------------|-------------------|-----------------|------------------------
D|----------1-----1|-3-5-3-------------|----------1-----1|-3-5-3-------5---3-5-8-|
A|-3----1-3-----3--|-------6-3---3----1|-3----1-3-----3--|-------6-3-6---------
E|-----------------|-----------6-----3-|-----------------|---------------------

G|----------5-----5|-8-5-------5-8---5|-8-5---5-----------------|
D|------5-8-----8--|-----8-5-8------8-|-----8---8-5-8-5---5-----|
A|-----------------|------------------|-----------------8---8-6-|
E|-----------------|------------------|-------------------------|


G|--------------------------|
D|-5-----3------------------|
A|---8-6---6-3-6-3---3------|
E|-----------------6---6-3--|
Un petit pont à attaquer doucement. En effet le riff ne se mémorise pas facilement et le but du jeu va être de déplacer le moins possible la main gauche en vous servant de tous vos doigts (utilisez l'auriculaire !!). 

4 Commentaires

1 2 3 4 5
7 notes
Notes pour Master blaster, 2° pont - Stevie Wonder - Cours de basse vidéo | Slappyto : 4/5 sur 7 notes
#4
18/08/2012 12:15:01

super son!!!!

 

0
0
#3
29/06/2012 18:02:42
Salut, y'a pas de slide dans le pont (glissé), c'est juste des changement de position de main, cette version était la plus ressemblante a la réalité, je l'ai modifier pour une 4 cordes, si certaines positions te vont pas suffit de les transcrire ailleur. bon courage ...
0
0
#2
29/06/2012 17:28:57

Salut je suis en train de bosser ce morceau  

sur la vidéo tu fait des glissé ?? y'en a pas sur la version originale (je pense)

et coté doigté est tu sur de la partition car il y'en as plusieures versions qui traîne 

 

je dis ca parce que il y'a un légé trou quand tu remonte sur la corde grave, ce qui me semble logique lors du démancher,

as tu étudier d'autre version si tu en as vu?

 

 

merci,

 

hélio

0
0
#1
28/11/2010 22:24:40
cool, merci , cela m'a aider,
0
0

En Live

Flea888 vient tout juste de rejoindre la communauté Slappyto. Bienvenue ! il y a 2 heures
Skydrover a commenté le topic [30 W tout lampes, suffisant ?] de skydrover il y a 3 heures
Golmout80 vient tout juste de rejoindre la communauté Slappyto. Bienvenue ! il y a 14 heures
Skydrover a commenté le topic [30 W tout lampes, suffisant ?] de skydrover il y a 15 heures
Skydrover a commenté le topic [30 W tout lampes, suffisant ?] de skydrover il y a 16 heures