ConnexionConnexionInscription
B E A D G
160 connectés Aller à Sweepyto Guitare

Motörhead - Iron fist

Publié par le
17/02/2008
31976 vues
Moyen 4
Vitesse NormaleNormal speed Vitesse RalentieSlow down speed
IRON FIST -- MOTÖRHEAD

G|---------------------------------------------------------------------------
D|---------------------------------------------------------------------------
A|-4h6-6-6-6-6-4h6-6-6-6-6-4h6-6-6-6-6-4h6-6-6-6-6-4h6-6-6-6-6-4h6-6-6-6-6-6-
E|---------------------------------------------------------------------------

----------|
-4--------|
----4-----|
-------4--|

x2


couplet

G|--4--4--4---4--4--4---6--6--6---6--6--6-|--4--4--4---4--4--4---4--6--6---6--6--6-|
D|--2--2--2---4--4--4---4--4--4---6--6--6-|--2--2--2---4--4--4---4--4--4---6--6--6-|
A|------------2--2--2-------------4--4--4-|------------2--2--2---2---------4--4--4-|
E|----------------------------------------|----------------------------------------|

refrain

G|---------------------------------------------------------------------------
D|---------------------------------------------------------------------------
A|-4h6-6-6-6-6-4h6-6-6-6-6-4h6-6-6-6-6-4h6-6-6-6-6-4h6-6-6-6-6-4h6-6-6-6-6-6-
E|---------------------------------------------------------------------------

----------|
-4--------|
----4-----|
-------4--|


couplet

Motörhead, Motörhead ... LE groupe de rock'n'roll !!!! Pas besoin d'en faire des tonnes, tout le monde connait ce groupe enorme et sa place dans le rock'n'roll!

Une petite disto sera la bien venue pour obtenir ce son agressif culte. Mais bon, soyons honnête personne à part lemmy n'arrive à avoir ce son!

Iron fist, un bon vieux titre des vieux loups de Motörhead... Faut rentrer dedans et que ça soit méchant! Alternez, si possible, toujours un mouvement au médiator en aller-retour afin de ne pas trop vous fatiguer!

Bossez le plutôt doucement pour commencer et puis accélerez jusqu'à détruire les murs....
La video ralentie est en son clair pour mieux discerner les notes, hésitez pas à y jetter un petit coup d'oeil.
N'oubliez pas le hammers qui durant le couplet qui donnent cette sonnorité rock'n'roll et surtout n'oubliez pas la note supplémentaire après le sixième hammer... je sais pas si c'est clair, mais sur le couplet, après chaque hammer il y a 4 Ré#, sauf au dernier où il y en a 5....
Le refrain est constitué de grattage d'accords, si vous n'êtes pas trop habitué à jouer des accords, bossez les tranquillement en posant bien vos doigts sans forcer comme un bourrin! Ca devrait venir tout seul.

J'ai pas tellement de conseils à vous donner pour ce plan, faut écouter, jouer tranquillement et puis envoyer la patate!!!

Ciao!

2 Commentaires

1 2 3 4 5
2 notes
Notes pour Iron fist - Motörhead - Cours de basse vidéo | Slappyto : 5/5 sur 2 notes
#2
26/02/2012 14:46:05

merci beaucoup, les vrais tabs de Motorhead sont effectivement rares ; si je peux passer commande :

 

- bomber

-stay clean

- over your shoulder

- no class

- overkill

too late too late

- damage case

 

merci par avance

"we're Motorhead & we're gonna kick your ass"

 

0
0
#1
22/08/2011 13:01:43
Merci gars , les tabs de motorhead sont rares !
0
0

En Live

Damsredams vient tout juste de rejoindre la communauté Slappyto. Bienvenue ! il y a 59 minutes
Grattos95 et bassman59 ont commenté le topic [Avis sur SWR] de Grattos95 il y a 13 heures
Yaip a commenté le topic [Ampeg pf 500 sur combo Hartke] de Kakou NC il y a 22 heures
Lowje a commenté le topic [gruvgear ?] de JV62 il y a 1 jour
Lowje, Capt. Roca 974 et KaKemono ont commenté le topic [Reglage pour grOs tirant nylon] de Capt. Roca 974 il y a 1 jour
Almodovars vient tout juste de rejoindre la communauté Slappyto. Bienvenue ! il y a 2 jours
Engué vient tout juste de rejoindre la communauté Slappyto. Bienvenue ! il y a 2 jours
Kakou NC vient tout juste de rejoindre la communauté Slappyto. Bienvenue ! il y a 2 jours
Tomioux a commenté le topic [vds basse modulus quantum 4] de tomioux il y a 3 jours