ConnexionConnexionInscription
B E A D G
118 connectés Aller à Sweepyto Guitare

Red Hot Chili Peppers - One big mob - Solo

Publié par le
02/12/2007
45214 vues
Avancé 4
Vitesse NormaleNormal speed Vitesse RalentieSlow down speed
G-------------------------|-------------------------|
D-------------------------|-------------------------|
A-7-7-----------------5---|-7-7-----------------5-6-|
E-----0-0-3h0-0-5h0-0---0-|-----0-0-3h0-0-5h0-0-----|

G-------------------------|-------------------------|
D-------------------------|-------------------------|
A-7-7-----------------5-6-|-7-7-----------------5-6-|
E-----0-0-3h0-0-5h0-0-----|-----0-0-3h0-0-5h0-0-----|

Si on regarde la tab, ça a pas l'air bien dur...si on écoute la chanson, on change d'avis  P.Waou ! Quelle puissance ! C'est limite su Slap aux doigts ??!!?? Et oui après le martelage de cordes, accueillez bien fort le bourrinage de cordes ! Une chose est sûr, ça va saigner !  P. A oui dernière chose, n'oubliez pas de jouer toutes les notes (notamment celle sur la corde de Mi) car sinon ça vous paraîtra trop facile...

It doesnt look really hard on the tab...but listening to the song makes you change your mind ! Wow ! What might ! Its almost Slap isnt it ?!? Im afraid so, after string-hammering come discover string-shoving ! Kids, its gonna hurt. Ummm, dont forget to play all the notes (notably the E-string one), otherwise itll seem too easy... =p

0 Commentaires : réagissez !

1 2 3 4 5
0 notes
Aucun commentaire !

En Live

Saikodoll vient tout juste de rejoindre la communauté Slappyto. Bienvenue ! il y a 2 jours
Bertrand44 vient tout juste de rejoindre la communauté Slappyto. Bienvenue ! il y a 3 jours
OLIVIER59500 vient tout juste de rejoindre la communauté Slappyto. Bienvenue ! il y a 3 jours
Jazzbassfoufou vient tout juste de rejoindre la communauté Slappyto. Bienvenue ! il y a 4 jours
MrSpit a commenté le topic [Sandberg Fretless] de MrSpit il y a 4 jours