ConnexionConnexionInscription
B E A D G
161 connectés Aller à Sweepyto Guitare

Red Hot Chili Peppers - Naked in the rain Solo

Publié par le
02/12/2007
62003 vues
Avancé 4
Vitesse NormaleNormal speed Vitesse RalentieSlow down speed
G-----------------------|------------------------|
D-----------------------|--------------X-3-3H5---|
A-----X-1-X-3-X-4-4/5---|-----X-1-X3/4-----------|
D-3-5-----------------0-|-3-5------------------0-|


G-----------------------|--------7---9-7---9/10-7---|
D-------3-0-5-3---------|------8---8-----8--------8-|
A-----X---------5-3-4-1-|---------------------------|
D-3-5-------------------|-3-5-----------------------|

G-12H14-14-12H14-14-12H14-14-12H14-14-10H12-12-9H10-
D---------------------------------------------------
A---------------------------------------------------
D---------------------------------------------------

G-10-8H9-9-7H8-8-7-7-5-0-5-|------------------3---|
D--------------------------|-----5-3-----3--5---5-|
A--------------------------|---------5-6----------|
D--------------------------|-3-5------------------|

G-6-6/18-18-18/19-19PO17-------|
D------------------------19-17-|
A------------------------------|
D------------------------------|

Personnellement, je trouve ce solo très difficile à faire sonner convenablement, je m'explique : Flea a tendance à lever légèrement ses cordes quand ( il joue des mini bends quoi ) et ça rend l'exécution de ce solo encore plus difficile (déjà que c'était pas à la portée de tous...). Ajouter à cela un groove hors du commun et une descente de manche en fin de solo au combien difficile à maîtriser et vous pourrez mesurer l'ampleur de ce bassiste légendaire. PS: N'oubliez pas de désaccorder votre corde de Mi en Ré (bien que ce n'a pas trop d'importance ici, la chanson utilise abondamment ce désaccordage).

I personally think this solo is very hard to play correctly. Flea tends to lift his strings slightly (he does some kind of mini-bends) and it makes this solo even harder to play well. Add terrific groove and the hardest neck descent at the end, and youll be able to estimate Fleas greatness. P.S. : dont forget to put your E string in tune D ; though it doesnt really matter here, the whole song uses this tune a lot.

2 Commentaires

1 2 3 4 5
1 note
Notes pour Naked in the rain Solo - Red Hot Chili Peppers - Cours de basse vidéo | Slappyto : 5/5 sur 1 note
#2
01/11/2011 00:26:41

Solo du moins...étrange, mais tellement bon à jouer une fois bien maîtrisé 

0
0
#1
27/07/2011 00:09:42
Salut merci pour tous ces cours sur les red hot!
Une question tu joues avec quelle basse et quel amPli pasque je trouve que tu as un très bon son sur certain de tes cours

Merci d'avance!
0
+1

En Live

Fendermk a voté pour le message de Captain Biftek il y a 3 heures
JD78 vient tout juste de rejoindre la communauté Slappyto. Bienvenue ! il y a 18 heures
Grobass a commenté le topic [[Ibanez GSR200] Votre avis ?] de Torus il y a 20 heures
Torus vient tout juste de rejoindre la communauté Slappyto. Bienvenue ! il y a 23 heures
Lookersbass vient tout juste de rejoindre la communauté Slappyto. Bienvenue ! il y a 1 jour
Pouetiti vient tout juste de rejoindre la communauté Slappyto. Bienvenue ! il y a 2 jours
Basilou vient tout juste de rejoindre la communauté Slappyto. Bienvenue ! il y a 2 jours
Poopeye vient tout juste de rejoindre la communauté Slappyto. Bienvenue ! il y a 2 jours