ConnexionConnexionInscription
B E A D G
162 connectés Aller à Sweepyto Guitare

Red Hot Chili Peppers - Coffee Shop (solo 2)

Publié par le
02/12/2007
89338 vues
Shredder
Vitesse NormaleNormal speed Vitesse RalentieSlow down speed
G-----------------------|---------------------------|
D-----------5-----------|-----------5---------5-7-5-|
A-----5H7-7---7-7-5H7-5-|-----5H7-7---7--7-7--------|
E-0-0-------------------|-0-0-----------------------|

G----------------------7--7H9-7---|-7H9-7---7-9-9-9-
D-7/9-7-5-7-5------7/9--9-------9-|-------9---------
A-------------7-5-----------------|-----------------
E---------------------------------|-----------------

G-/12-12-12-12-12-----|-------12----14B15-14-14B15-|
D------------------12-|-12H14----14----------------|
A---------------------|----------------------------|
E---------------------|----------------------------|

G-14B15-14B15--12----12-|-14B15-14B15-14B15-14B15-14B15-
D-----------------14----|-------------------------------
A-----------------------|-------------------------------
E-----------------------|-------------------------------

G-12----------------|---------------------------12------|
D---14-X-12-14-14-X-|-12H14-14-14-12---------------14---|
A-------------------|----------------14-15-15-15------0-|
E-------------------|-----------------------------------|

G---------------------------------------------|
D------14------17-16-14--------------------12-|
A-14H15---14H15---------0-14-15-0-12-13-14----|
E---------------------------------------------|

G--------------------------12-----------|
D--------------12--12-13-14--14-12-14---|
A-14-12-13-14----14---------------------|
E---------------------------------------|

G---------------------12---------|
D---------12--12-13-14--14-12-14-|
A-12-13-14--14-------------------|
E--------------------------------|

G-------------------12--12H14-14-14-14-14-|-19--19-18--
D----------12-13-14-----------------------|------------
A-/12-13-14-------------------------------|------------
E-----------------------------------------|------------

G-18-16--16--------------------|
D-----------17--17-16-16-14-14-|
A------------------------------|
E------------------------------|

Je crois qu'il n'y a aucuns mots pour qualifier ce solo tellement il a fait pleurer des bassistes (moi y compris) . C'est vraiment la puissance par excellence et c'est très difficile à jouer (notamment les dernières mesures gloups !). Vous allez donc peut être y arriver mais n'oublier pas que c'est du bourrinage excessif de cordes ( d'ailleurs cherchez pas ailleurs pour savoir d'où vient principalement le son de Flea ) donc si vous y arrivez en y jouant gentiment, il vous reste une montagne de boulot ( car plus on "rentre" dans ses cordes, plus c'est difficile d'atteindre des vitesses vertigineuses ), d'ailleurs, il m'en reste pas mal aussi, parce que j'en bave pas mal !

I dont think that any words could describe this heartbreaking solo. It embodies MIGHT and its very hard to play (the last times notably =S). Maybe youll make it, but dont forget youve got to mistreat your strings (you may now understand where Fleas sound comes from). So, if you can make it playing all nice and easy, then youve got some work ahead..! (since the more you shove your strings, the harder it gets to be fast) Just like you, Im going to do this work now...I aint done yet ! =)

12 Commentaires

1 2 3 4 5
18 notes
Notes pour Coffee Shop (solo 2) - Red Hot Chili Peppers - Cours de basse vidéo | Slappyto : 5/5 sur 18 notes
#12
07/05/2013 22:18:56

Duuur! J'ai du mal à enchaîner les notes à 0:14  

J'vais y arriver!!

0
0
#11
12/01/2013 16:58:22

C'est super chaud je vais bosser à mort et je vais essayer d'y arriver: je croise les doigts  

0
0
#10
21/06/2012 16:07:00

Enorme !!!  

0
+1
#9
16/05/2012 20:47:33
Nom de dieu :s
0
0
#8
07/01/2012 20:42:08
Aïe! Mes doigts!  
0
0

En Live

Fendermk a voté pour le message de Captain Biftek il y a 3 heures
JD78 vient tout juste de rejoindre la communauté Slappyto. Bienvenue ! il y a 18 heures
Grobass a commenté le topic [[Ibanez GSR200] Votre avis ?] de Torus il y a 20 heures
Torus vient tout juste de rejoindre la communauté Slappyto. Bienvenue ! il y a 23 heures
Lookersbass vient tout juste de rejoindre la communauté Slappyto. Bienvenue ! il y a 1 jour
Pouetiti vient tout juste de rejoindre la communauté Slappyto. Bienvenue ! il y a 2 jours
Basilou vient tout juste de rejoindre la communauté Slappyto. Bienvenue ! il y a 2 jours
Poopeye vient tout juste de rejoindre la communauté Slappyto. Bienvenue ! il y a 2 jours