ConnexionConnexionInscription
B E A D G
72 connectés Aller à Sweepyto Guitare

Red Hot Chili Peppers - Nobody weird like me

Publié par le
02/12/2007
37253 vues
Avancé 3
Vitesse NormaleNormal speed Vitesse RalentieSlow down speed
G-----5---7-----5---7-|-----5---7---5---5---7-|
D-0-0---0---0-0---0---|-0-0---0---0---0---0---|
A---------------------|-----------------------|
E---------------------|-----------------------|
T T P T P T T P T P T T P T P T P T P T P

G-----5---7-----5---7-|-----5---7---5---5---7-|
D-0-0---0---0-0---0---|-0-0---0---0---0---0---|
A---------------------|-----------------------|
E---------------------|-----------------------|
T T P T P T T P T P T T P T P T P T P T P

G-----5---7-----5---7-|-----5---7---5---5---7-|
D-0-0---0---0-0---0---|-0-0---0---0---0---0---|
A---------------------|-----------------------|
E---------------------|-----------------------|
T T P T P T T P T P T T P T P T P T P T P

G-----5---7-----5---7-|-----12B14-12B14-------|
D-0-0---0---0-0---0---|-0-0-------------------|
A---------------------|-----------------------|
E---------------------|-----------------------|
T T P T P T T P T P T T P P
Jusqu'à présent, tout allait bien...Serais-je entrain de vous annoncer une mauvaise nouvelle ? Pas du tout ! Un plan diabolique :) qui va très très vite !!! Il faut avoir un bon niveau en Slap pour d'une, bien interpréter ce plan, et de deux pour finir la chanson...et oui c'est crevant et vos doigts s'engourdissent. Y'a un remède ? bien sûr :o) il faut bosser...(doucement au début sinon vous allez vous perdre et vous risquer aussi de perdre votre pouce :oP).

Well, everything was great and easy.. Am I announce you a bad new ? Don't worry, it's simply a diabolik pla :) which is very very fast !!! You must have a good level in slap to interpret this plan and end this song... yes, according to you, it's tiring and yours fingers become a bit numb. May I give you solution to health your distroyed fingers ? Of course :o) You must work... ( at the beginning it must be easy otherwise you're going to loose yourself.. and loose your thumb too :op )

2 Commentaires

1 2 3 4 5
2 notes
Notes pour Nobody weird like me - Red Hot Chili Peppers - Cours de basse vidéo | Slappyto : 5/5 sur 2 notes
#2
20/02/2011 21:43:49

Démoniaque, y'as pas d'autre mot x)

0
+1
#1
30/01/2011 17:03:17
génial! super dur mais génial!  
0
0

En Live

Ray a commenté le topic [G&L M2500 parfait état ] de Ray il y a 10 heures
Cédric Idf vient tout juste de rejoindre la communauté Slappyto. Bienvenue ! il y a 20 heures
Vox 22 vient tout juste de rejoindre la communauté Slappyto. Bienvenue ! il y a 1 jour
Wario a commenté le topic [GL Kiloton US 890€] de Wario il y a 1 jour
Freinet vient tout juste de rejoindre la communauté Slappyto. Bienvenue ! il y a 1 jour
Serge blessing vient tout juste de rejoindre la communauté Slappyto. Bienvenue ! il y a 2 jours
Vin'z du 50 vient tout juste de rejoindre la communauté Slappyto. Bienvenue ! il y a 3 jours
Gozo et koches ont commenté le topic [vds WARWICK Corvette std MIG 600€] de gozo il y a 3 jours