ConnexionConnexionInscription
B E A D G
119 connectés Aller à Sweepyto Guitare

Jamiroquai - Black capricorn day

Publié par le
30/03/2006
21859 vues
Moyen 1
Vitesse NormaleNormal speed Vitesse RalentieSlow down speed
G-----------------------|------------------------------|
D-----------------------|----------------------5-------|
A--7--7-----5--7--5--7--|--7-7-4-4-5-----5--7-----7-5--|
E--------7--------------|-------------7----------------|

G-----------------------|-------------------------------|
D-----------------------|----------------------5--------|
A--7--7-----5--7--5--7--|--7-7-4-4-5-----5--7----7-5----|
E--------7--------------|-------------7---------------7-|

G---------------------------------------|
D-----11--9--11--------11--9--11--------|
A----------------X--7-------------X--9--|
E--9------------------------------------|

G--------------------------------------|
D--11--9--11-------------9-9------9-10-|
A-------------X--11--11-------11-------|
E--------------------------------------|

G-----------------------|----------------|
D-11-----------6--8--9--|--------4-6-----|
A-----------------------|--4-7-4---------|
E-----9--7--9-----------|-------------7--|

G---------------------------------------|
D-----11--9--11--------11--9--11--------|
A----------------X--7-------------X--9--|
E--9------------------------------------|

G--------------------------------------|
D--11--9--11-------------9-9------9-10-|
A-------------X--11--11-------11-------|
E--------------------------------------|

G-----------------------|--8-H-9--8--------------------|
D-11-----------6--8--9--|------------9-H-11------------|
A-----------------------|--------------------X-9-H-11--|
E-----9--7--9-----------|------------------------------|

G---------------------------------------|
D-----11--9--11--------11--9--11--------|
A----------------X--7-------------X--9--|
E--9------------------------------------|

G--------------------------------------|
D--11--9--11-------------9-9------9-10-|
A-------------X--11--11-------11-------|
E--------------------------------------|

G-----------------------|-----------------------|
D-11-----------6--8--9--|-----------------------|
A-----------------------|------4-7-4-----4------|
E-----9--7--9-----------|--4-7-------7-4---4-/--|

G---------------------------------------|
D-----11--9--11--------11--9--11--------|
A----------------X--7-------------X--9--|
E--9------------------------------------|

G--------------------------------------|
D--11--9--11-------------9-9------9-10-|
A-------------X--11--11-------11-------|
E--------------------------------------|

G-----------------------|
D-11-----------6--8--9--|
A-----------------------|
E-----9--7--9-----------|

G--8-H-9------------------------------|
D--------X-9-H-11----------9----------|
A-----------------X-9-H-11---11-9-----|
E---------------------------------12--|

G---------------------------------------|
D-----11--9--11--------11--9--11--------|
A----------------X--7-------------X--9--|
E--9------------------------------------|

G--------------------------------------|
D--11--9--11-------------9-9------9-10-|
A-------------X--11--11-------11-------|
E--------------------------------------|

G-----------------------|-----------------------|-------|
D-11-----------6--8--9--|--9-8----9-------------|-------|
A-----------------------|------11---11-9-7------|-------|
E-----9--7--9-----------|------------------9-7--|--9----|
Cela peut paraitre long à première vue mais je vais éclaircir tout çà ;-) Dans cet exercice nous allons voir brièvement le couplet plutôt simple, ainsi que les nuances apportées au niveau du refrain. Tout dabord, les quatres premières mesures, ... c'est le couplet, avec un riff assez simple qui ne devrait pas trop poser problème mis à part la descente qui fait la transition avec le refrain à travailler lentement de préference :-) Ensuite en ce qui concerne le refrain en lui même vous avez sûrement remarqué qu'il est constitué d'un riff sur 3 mesures ( une mesure étant l'espace situé entre deux barres verticales ) se terminant par une quatrième mesure variant à chaque fois. Par conséquent je vous conseillerais de bien bosser les trois premières mesures du refrain afin qu'elles ne vous posent plus de problèmes de façon à pouvoir vous concentrer sur les variantes des quatrièmes mesures. Faites bien attention aux notes mortes par ci par là ce sont elles qui, combinées avec des notes brèves vont faire tourner ce riff. Il ne vous reste plus qu'à jouer les variantes toujours en faisant bien attention aux notes mortes et hammers, travaillez les lentement ce n'est pas si évident que çà, pour vous aider écoutez bien le ralenti pour bien assimiler la façon d'approcher ce riff.

0 Commentaires : réagissez !

1 2 3 4 5
0 notes
Aucun commentaire !

En Live

Wario et PatG ont commenté le topic [[Topic COVERS], à vos basses!!!:)] de JAYSEE99 il y a 21 heures
Wario a voté pour le message de PatG il y a 21 heures
Grut vient tout juste de rejoindre la communauté Slappyto. Bienvenue ! il y a 3 jours
3dd-titix et brambasstik ont commenté le topic [Aguilar GS112 avec sa house de protection 300 euro...] de 3dd-titix il y a 3 jours
3dd-titix a commenté le wall de brambasstik il y a 3 jours
Brambasstik vient tout juste de rejoindre la communauté Slappyto. Bienvenue ! il y a 4 jours
Maax a commenté la tablature de papiendrix il y a 4 jours
Maax vient tout juste de rejoindre la communauté Slappyto. Bienvenue ! il y a 4 jours