ConnexionConnexionInscription
B E A D G
55 connectés Aller à Sweepyto Guitare

Beatles - Octopus 's garden [ Artiste ]

Publié par le
12/01/2011
7765 vues
Débutant 1
http://www.youtube.com/watch?v=CUFcfXgW_dQ
    
        

Octopus's Garden 
Abbey Road                                          
The Beatles

Intro

G||-------------------|--------------------|---------------------|-----------------------|
D||-------------------|--------------------|---------------------|-----------------------|
A||-------------7-----|---------7----4--6--|--7---------4--------|------7-------4--6-----|
E||----------7--------|-----------7--------|-------7---------4---|--5--------7--------7--|



Couplet 1                                                                  

-----------------------|------------------------|-----------------------|
-----------------------|------------------------|-----------------------|
--7----------7----6----|--4\---------4\---------|-------7---------7-----|
--------7--------------|--------4----------7----|--5---------5-------5--|
                                                                                 
    
-----------------------------|----------------------|----------------------|-----------------------|
-----------------------------|----------------------|----------------------|-----------------------|
--------------------6------6-|--7---------7----6----|--4---------4---------|-------7---------7-----|
--7--7--7--7--7--9-----7-9---|-------7--------------|-------4---------7----|--5---------5-------5--|

   
--------------------------|-------------------|---------------------|-------------------|
--------------------------|-------------------|---------------------|-------------------|
--------------6--------6--|-------------------|---------------------|-------------------|
--7--7--7--9-------7-9----|--9----------------|-----------9----7----|--5----------------|
                                              
   
--------------------------|
--------------------------|
-----------------------6--|
--7--7--7--7-----7--9-----|



Refrain                        
   
|-------9\--------------|--------------------|------------------------|-------9----9----9-4-6--|
|-----------------------|--------------------|-------7----------------|------------------------|
|--7----------7----6----|--4-------4---------|---------------------6--|--7---------------------|
|-----------------------|---------------7----|--5-------5--7----9-----|------------------------|



Couplet 2                 
 
------------------------|------------------------|-----------------------|------------------------|
------------------------|------------------------|-----------------------|-------4----------------|
--7-----------7----6----|--4---------4--4--2--2--|-------7---------7-----|------------------6--2--|
---------7--------------|-------4----------------|--5---------5-------5--|--7---------7--9--------|

  
------------------------|------------------------|-----------------------|-----------------------|
------------------------|------------------------|-----------------------|-----------------------|
--7---------7br----6----|--4---------4br----2----|-------7---------4--7--|----------4--6---------|
------------------------|-------4----------------|--5---------5----------|--7----7----------7----|

           
-------------------|---------------------|-------------------|-------------------------|
-------------------|---------------------|-------------------|-------------------------|
-------------------|---------------------|-------------------|----------------------6--|
--9----------------|-----------9----7----|--5----------------|--7--7--7-------7--9-----|



Refrain                                                                 

-------------------------|----------------------|------------------------|------------9--9--9-7-6---|
-------------------------|----------------------|------------------------|------------------------9-|
--7------------7----6----|--4---------4----2----|-------7----------6-----|--7-----------------------|
----------7--------------|-------4--------------|--5---------7--9-----7--|-------7------------------|



Solo                                              
    
-------------------------|------------------------|
--7----7-------7--7------|--4--4-------4--4-------|
----------7----------7---|--------4----------4----|
-------------------------|------------------------|

  
-------------------------|------------------------|-------------7--7-------|
-------------------------|-----------------6------|--7--7------------------|
--5--5-------5--5-----5--|--7--7-------7-9-----7--|--------7----------7----|
--------5----------5-----|--------7---------------|------------------------|

  
-------------------------|---------------------------|--------------------------|
--4--4-------4--4--------|---------------------------|--------------------------|
--------4----------7-----|--5--5-------7--7----5-4---|-----------------------6--|
-------------------------|--------5----------------7-|--5--5--5--5--7--7--9-----|



Couplet 3                                                                    
  
--------------------------|------------------------|-----------------------|
--------------------------|------------------------|-----------------------|
--7-----------7--7--------|--4---------4--4--------|-------7---------7-----|
---------7-------------4--|-------4-------------7--|--5---------5-------5--|

  
--------------------------|-----------------------|----------------------|------------------------|
--------------------------|-----------------------|----------------------|------------------------|
--------------6--------6--|--7--7-------7----6----|--4---------4---------|-------7-------4--7-----|
--7--7--9--9-----7--9-----|--------7--------------|-------4---------7----|--5---------5--------5--|

             
-----------------------|-------------------|-------------------4\----|-------------------|
-------4---------------|-------------------|-------------------------|-------------------|
------------------6----|-------------------|------------4------------|-------------------|
--7---------7--9-------|--9----------------|---------4-----9/--------|--5----------------|
                                                    
    
---------------------------|
---------------------------|
------------------------6--|
--7--7--7--7-7----7--9-----|



Refrain                                         
    
--------------------------|----------------------|
--------------------------|----------------------|
--7------------7--7--6----|--4---------4---------|
----------7---------------|-------4---------7----|

  
-----------------------|----------------------|------------------------|--------------------------|
-----------------------|----------------------|------------------------|--------------------------|
-------7------------6--|--7---------4---------|-------4--7-------6--9--|--------------------------|
--5---------7----7-----|-------7---------7----|--5----------7----------|--9--9--9--9--9--7--7--7--|

                 
----------------------|-----------------------|-------------------|
----------------------|-----------------------|-------------------|
-------7---------6----|--7------------6--7----|--L7---------------|
--5---------7---------|-----------------------|-------------------|

    
    

0 Commentaires : réagissez !

1 2 3 4 5
4 notes
Notes pour Octopus 's Garden Basse Tab - (Beatles) | Slappyto : 5/5 sur 4 notes
Aucun commentaire !

En Live

Pat, grobass et cdurand ont commenté le topic [Besoin de conseil pour achat basse d'occas'] de cdurand il y a 1 heure
Synchronnn et popolito ont commenté le topic [Stingray 2eq teal green] de popolito il y a 12 heures
Janud et bassman59 ont commenté le topic [Schema de câblage spécial] de Janud il y a 1 jour
EddyCap, grobass et Wario ont commenté le topic [Évaluation prix Fender Jazz Bass FL circa 2004] de EddyCap il y a 1 jour
EddyCap a accepté le message de grobass il y a 1 jour
Grobass a voté pour le message de pat il y a 1 jour
Lasshowl a commenté le topic [Chainage encore et toujours...] de Lasshowl il y a 2 jours
Cdurand vient tout juste de rejoindre la communauté Slappyto. Bienvenue ! il y a 2 jours