ConnexionConnexionInscription
B E A D G
151 connectés Aller à Sweepyto Guitare

Marcus Miller - Scoop [ Artiste ]

Publié par le
14/01/2011
12370 vues
Avancé 2
http://www.youtube.com/watch?v=NHdN_O5k3WM
    
        

Marcus Miller-Scoop



G|---------7--------6-----4h6b4--------------------4------------------------ (x2)
D|------5-----------4----------7b5-----2-------2------------0---------------
A|--7-7-------------------------------------------------0h2-----------------
E|------------X-X------------------------0--0-------------------2h4p2p0---9-

G|---------7--------6-----4h6b4----------------
D|------5-----------4----------7b5-----2-------
A|--7-7-------------------------------------0\-
E|------------X-X------------------------0/----

G|----------12/16--12----0--------11p9h10p9h10p9-------9-------------9h11-13--11h13-
D|-----------------------------------------------------------9-11-9-----------------
A|----------------------------------------------------------------------------------
E|-------X-X-------------------X-X-------------------0-X----------------------------

G|---X---9-11-13--13/14-------11h13--------9--11--12p11p9--9------9---11{-
D|----------------------------11------------------------------10------9{--
A|----------------13/14--14------------11---------------------------------
E|-X--------------------------------0-------------------------------------

G|--0--------12/16--12---0-------11p9h10p9h10p9-------9--------------9h11-13--11h13-
D|-----------------------------------------------------------9-11-9-----------------
A|----------------------------------------------------------------------------------
E|-------X-X-------------------X-X-------------------0-X----------------------------


G|---X---9-11-13--13/14---14--11h13------------10-11-12p11p9----5h7-8p7p5--------------
D|-----------------------------------------11-----------------------------5h7-8p7p5-4--
A|----------------13/14----------------------------------------------------------------
E|-X----------------------------------0------------------------------------------------

G|---X--------------7--------6---4h6p4----------------4----------7-9-X-12-9--------6--4h6p4----------
D|---------------5-----------4--------7p5---2------2--------0----------------------4-------7p5---2---
A|-X----7--7---------------------------------------------0h2-----------------------------------------
E|-----------0-0-------X-X--------------------0-0----------------------------X-X-------------------0-
    
    

1 Commentaire

1 2 3 4 5
0 notes
#1
12/06/2014 13:45:23

top vidéo

0
0

En Live

Lebollos59 vient tout juste de rejoindre la communauté Slappyto. Bienvenue ! il y a 6 heures
GregRock vient tout juste de rejoindre la communauté Slappyto. Bienvenue ! il y a 8 heures
Chris927 vient tout juste de rejoindre la communauté Slappyto. Bienvenue ! il y a 4 jours
Greeshma vient tout juste de rejoindre la communauté Slappyto. Bienvenue ! il y a 5 jours
Ludo ZEFISH vient tout juste de rejoindre la communauté Slappyto. Bienvenue ! il y a 6 jours
Nicobass1793 vient tout juste de rejoindre la communauté Slappyto. Bienvenue ! il y a 6 jours
Indonesiae vient tout juste de rejoindre la communauté Slappyto. Bienvenue ! il y a 1 semaine
Grandbill a commenté la tablature de Coup_de_pelle il y a 1 semaine
Grandbill a voté pour la tablature de Coup_de_pelle il y a 1 semaine