ConnexionConnexionInscription
B E A D G
131 connectés Aller à Sweepyto Guitare

Eric Serra - CongaBass [ Artiste ]

Publié par le
13/01/2011
17772 vues
Avancé 1
http://www.youtube.com/watch?v=3WTF42N8dAw
    
        

Congabass by Eric Serra
                              

                              

G |------------7---9----------x--------x----------7--7---------7--7------------|(x3)
D |----------------------------------------------------------------------------|
A |------7--x---------------x-----4--x-----5--x----------5-5---------4/7-------|
E |------------------0--0------------------------------------------------------|

G |------------7---9----------x--------x----------7--7---------7--7------------|
D |----------------------------------------------------------------------------|
A |------7--x---------------x-----4--x-----5--x----------5-5---------4/2-------|
E |------------------0--0------------------------------------------------------|

G |----------4---4------------4------6-----------7---7------------7--------8---|
D |----------------------------------------------------------------------------|
A |---2---x---------x--5--5------4-------5---x----------x--5--5-------6--------|
E |----------------------------------------------------------------------------|

G |-----------------------------12h13-------------------------|
D |-------------------------12--------------------------------|
A |------------------10h12------------------------------------|
E |----0-x-0-0-x-0------------------------0-x-0-0-x-0----4/2--|

G |----------4---4------------4------6-----------7---7------------7--------8---|
D |----------------------------------------------------------------------------|
A |---2---x---------x--5--5------4-------5---x----------x--5--5-------6--------|
E |----------------------------------------------------------------------------|

G |-----------------------------12h13-------------------|
D |-------------------------12--------------------------|
A |------------------10h12------------------------------|
E |----0-x-0-0-x-0------------------------0-x-0-0-x-0---|
    
    

13 Commentaires

1 2 3 4 5
1 note
Notes pour CongaBass Basse Tab - (Eric Serra) | Slappyto : 5/5 sur 1 note
#13
22/06/2015 19:01:03

G|--------------------12_13------------|----------------|----------------|
D|----------------11_12----------------|----------------|----------------|
A|------------/3\-------------------|----------------|----------------|
E|0xx0-xx0x-0-xxx------------|----------------|----------------|----------------|

 
0
0
#12
15/01/2011 11:31:24

Mwaif la gp4 du topoc est un peu différente mais est pas mauvaise du too

0
0
#11
15/01/2011 08:54:03

 

Retirer
Moune

C'est une partoche papier payante.

 

 Et tu pourrais regarder si elle est très différente de la version GP5 que j'ai indiquée ?

C'est une patoche faite par Eric Serra ou un truc fait par un professionnel du relevé (e.g. pas un bassiste) ?

Et ce papier, il peut être scanné ?  

 

0
0
#10
15/01/2011 00:51:50

C'est une partoche papier payante.

 

0
0
#9
14/01/2011 23:06:16

Moune je ne sais pas de quoi tu parles.

Voici une version GP 5 pas trop mauvaise :  http://www.box.net/shared/lsqq98u8qd

Une autre version en GP4 :  http://www.box.net/shared/0afruofg64

Sinon il y avait eu un thread sur CongaBass il n'y a pas longtemps, postez vos vidéos, qu'on arrive à tous à pondre une version correcte.

Pour info, Eric Serra passait la semaine dernière à paris.

0
0

En Live

Wario a commenté le topic [videothèque des sons] de mr gone il y a 4 jours
Lebollos59 vient tout juste de rejoindre la communauté Slappyto. Bienvenue ! il y a 5 jours
GregRock vient tout juste de rejoindre la communauté Slappyto. Bienvenue ! il y a 6 jours
Chris927 vient tout juste de rejoindre la communauté Slappyto. Bienvenue ! il y a 1 semaine
Greeshma vient tout juste de rejoindre la communauté Slappyto. Bienvenue ! il y a 1 semaine
Ludo ZEFISH vient tout juste de rejoindre la communauté Slappyto. Bienvenue ! il y a 1 semaine
Nicobass1793 vient tout juste de rejoindre la communauté Slappyto. Bienvenue ! il y a 1 semaine
Indonesiae vient tout juste de rejoindre la communauté Slappyto. Bienvenue ! il y a 1 semaine
Grandbill a commenté la tablature de Coup_de_pelle il y a 1 semaine