ConnexionConnexionInscription
B E A D G
139 connectés Aller à Sweepyto Guitare

Lenny Kravitz - The Other Side [ Artiste ]

Publié par le
16/01/2011
6444 vues
Débutant 1
http://www.youtube.com/watch?v=ZbiQSOZ9FB8
    
        

Lenny Kravitz 
The other side
Baptizm


 Intro/ Couplet 1
G||------------------|-----------------|------------------|-----------------|
D||------------------|-----------------|------------------|-----------------| 2x
A||--1---------------|--5--------------|--1---------------|--5--------------|
E||-----------3------|-----------------|-----------3------|-----------------|



----------------------|-----------------------|---------------|------------|
----------------------|-----------------------|---------------|------------|
6--------6---6----6-5-|--3--------3---3----3--|--1------------|--5---------|
-------6--------------|---------3-------------|--------3------|------------|

 
--------------|-----------------|----------------------|--------------------|
--------------|-----------------|----------------------|--------------------|
1-------------|--5----------3-5-|--6------6---6----6-5-|--3---------3---3---|
---------3----|-----------------|-------6--------------|----------3---------|



Pre Refrain
---------------------|------------------------|-------------|----------|
---------------------|------------------------|--3----------|----------|
6-----------6----5-6-|--7---------7---7----7--|-------------|----------|
------6--------------|----------7-------------|-------------|--1-------|


Refrain
--------------------|--------------------------|-----------------------|-----------------------|
--------------------|--------------------------|-----------------------|-----------------------|
1-----1-------------|--5---5----0--5---5----5--|--1---1----------------|--5---5----5---5----3--|
-----------3---3----|--------------------------|-----------3---3----5--|-----------------------|


                
Couplet 2
----------------------|---------------------------|--------------------------|----------------------------|
----------------------|---------------------------|--------------------------|----------------------------|
1----1-------------1--|--5----5----0--5---5----3--|--1---1-------------------|--5----5----0--5---5----3-5-|
----------3---3-------|---------------------------|-----------1--3---3----5--|----------------------------|


-------------------------|-------------------------|----------------------------|---------------------------|
-------------------------|-------------------------|----------------------------|---------------------------|
-------------------------|--3----3-----------------|------------------------3-4-|--5----5----0--5---5----5--|
6---6-------6---6----6-5-|----------3--8---8----3--|--6----6----1--3---3--------|---------------------------|

                  

----------------------------|-------------------------------|-----------------------------|-----------------------------|
------------------------3-1-|-------------------------------|-----------------------------|----------------8-9-10-------|
1------1--------------------|--5-------5----0--5---5----3-5-|--6-----6-------6---6----6-5-|--3---3----------------10----|
------------1--3---3--------|-------------------------------|-------------6---------------|---------6-7-8------------8--|



Pre Refrain 
---------------------------|-----------------------------|----------------------------|---------------|
---------------------------|-----------------------------|----------------------------|---------------|
6-----6-------6---6----5-6-|--7-----7-------7---7----6-7-|--8-----8-------8---8-------|---------------|
-----------6---------------|-------------7---------------|-------------8-----------8--|--1------------|



Couplet 3  
--------------------------|--------------------------|----------------------------|--------------------------|
-----------------------   |--------------------------|----------------------------|--------------------------|
1---1---------------------|--5---5----0--5---5----5--|--1---1---------------------|--5---5----0--5---5----3--|
-----------3---3----------|--------------------------|--------------1--3---3------|--------------------------|



 Solo Saxo
------------------------|--------------------------|--------------------------|
------------------------|--------------------------|--------------------------|
1---1----------------0--|--5---5----0--5---5----5--|--1---1----------------0--|
---------1--3---3-------|--------------------------|-----------1--3---3-------|



-------------------------|---------------------------|---------------------------|
-------------------------|---------------------------|---------------------------|
5---5----0--5---5----3-5-|--6---6-------6---6----6-5-|--3---3----1-2-3----3---5--|
-------------------------|-----------6---------------|---------------------------|


Pre Refrain
Couplet3
    
    

1 Commentaire

1 2 3 4 5
3 notes
Notes pour The Other Side Basse Tab - (Lenny Kravitz) | Slappyto : 5/5 sur 3 notes
#1
03/02/2013 19:43:42
0
0

En Live

Grobass, Wario, chris7273 et lowje ont commenté le topic [[Muse Uprising] identification des notes jouées da...] de Erebus il y a 2 heures
Bouns vient tout juste de rejoindre la communauté Slappyto. Bienvenue ! il y a 3 heures
Riccardo vient tout juste de rejoindre la communauté Slappyto. Bienvenue ! il y a 4 heures
RomBass91 et gfrancony ont commenté le topic [Basse ZON Legacy Elite] de gfrancony il y a 12 heures
Bat72 vient tout juste de rejoindre la communauté Slappyto. Bienvenue ! il y a 17 heures
Fhurou vient tout juste de rejoindre la communauté Slappyto. Bienvenue ! il y a 1 jour
Bass_5s et thibass60 ont commenté le topic [MUSICMAN STINGRAY 5 Fretless - Etat Neuf - 1300€] de funkmetender il y a 1 jour
Metallistunt vient tout juste de rejoindre la communauté Slappyto. Bienvenue ! il y a 1 jour
MasterFailure a voté pour le message de Wario il y a 1 jour
Thibass60 vient tout juste de rejoindre la communauté Slappyto. Bienvenue ! il y a 2 jours