ConnexionConnexionInscription
B E A D G
128 connectés Aller à Sweepyto Guitare

Jamiroquai - White Knuckle Ride [ Artiste ]

Publié par le
16/01/2011
15427 vues
Moyen 4
http://www.youtube.com/watch?v=7yUq1-BRlPE
    
        

Jamiroquai
White knuckle ride
Rock Dust Light Star


A jouer très funky

      Couplet                                                    
G||-------------------------------|-----------------------------|-------------------------|-------------------------|
D||-------------------------------|-------3---------------------|-------------------------|-------------------------| x2
A||---3-------3--3-----3-------3--|--L------------6-------5-----|-------------------------|---------x-x-3--1--3-----|
E||-------------------------------|----------(3)-----(3)--------|--3--3--3-----3-------3--|--L----------------------|



|-------------------------|-----------------------------|-------------------------|------------------------|
|-------------------------|-------3---------------------|-------------------------|------------------------| x1
|--3-3-3---3---------3----|--3------------6-------5-----|-------------------------|---------x-x-3--1--3----|
|-------------------------|----------(3)-----(3)--------|--3--3--3-----3-------3--|--L---------------------|


                                                  
|-------------------------------|-----------------------------|-------------------------|-------------------------|
|-------------------------------|-------3---------------------|-------------------------|-------------------------| x3
|---3-------3--3-----3-------3--|--L------------6-------5-----|-------------------------|---------x-x-3--1--3-----|
|-------------------------------|----------(3)-----(3)--------|--3--3--3-----3-------3--|--L----------------------|




Pre Refrain                                    
|---------------------------|---------------------|---------------------|----------------------|
|---------------------------|---------------------|---------------------|----------------------|
|---------------------------|--3------1-----------|---------------------|--3------1------------|
|---3-----------1-----------|---------------------|--3------1-----------|----------------------|



|---------------------------|---------------------|---------------------|---------------------|
|---------------------------|---------------------|---------------------|--1------3-----------|
|---------------------------|--3------1-----------|---------------------|---------------------|
|---3-----------1-----------|---------------------|--3------1-----------|---------------------|


Refrain                                                                           
|-------------------------------|-------------------------|-------------------------|
|-------------------------------|--1--1-----3-------------|-------------------------|
|--x-------3--3-----3---------x-|-------------------------|-------------------------|
|-------------------------------|-----------------------x-|--3--3-----3-----------x-|


    
|--------------------------------|-------------------------|-------------------------|
|----5---------------------------|-------------------------|-----1--1-----3----------|
|------------------------1-1-3---|-----3--3-----3----------|-------------------------|
|--3---3----3-----3-3------------|-------------------------|-------------------------|


|--------------------------|-----------------10~------|-------------------------|
|-----5--------------------|--5------3----------------|-------------------------|
|--------------------------|--------------------------|--x-3--3-----3---------x-|
|--3-----3-----3-------3-3-|-----1-1------------------|-------------------------|


 
|-------------------------|-------------------------|-------------------------------|
|--1--1-----3-------------|-------------------------|----5--------------------------|
|-------------------------|-------------------------|------------------------1-1-3--|
|-----------------------x-|--3--3-----3-----------x-|--3---3----3-----3-3-----------|

                
|-------------------------|--------------10\--------|
|-------------------------|-----1--1----------------|
|-----3--3-----3----------|-------------------------|
|-------------------------|-------------------------|

Couplet
Pré Refrain 
Refrain
Silence
Refrain

    
    

3 Commentaires

1 2 3 4 5
5 notes
Notes pour White Knuckle Ride Basse Tab - (Jamiroquai) | Slappyto : 5/5 sur 5 notes
#3
23/03/2011 14:45:58
Je l'imaginais quand meme bcp plus difficile! Thanks!!!
0
0
#2
27/01/2011 23:07:26
  Content que ça serve, perso j'ai pas le niveau pour jouer ce style de musique, mais faire des relevés m'aide à mieux comprendre comment fonctionne des bons groove.

J'ai fait le relevé avec  guitar pro 5 , voici le lien vers le fichier, c'est quand même plus pratique pour piger la rythmique même si c'est pas parfait
Image White Knuckle bones guitar pro
0
0
#1
27/01/2011 13:03:16
Merci beaucoup
0
0

En Live

LouisBasse vient tout juste de rejoindre la communauté Slappyto. Bienvenue ! il y a 1 jour
Kazhamania vient tout juste de rejoindre la communauté Slappyto. Bienvenue ! il y a 1 jour
Grabdexter vient tout juste de rejoindre la communauté Slappyto. Bienvenue ! il y a 2 jours
Tchen a commenté le topic [GML 8200 EQ] de crewaudio il y a 3 jours
Tchen vient tout juste de rejoindre la communauté Slappyto. Bienvenue ! il y a 3 jours
ValLib vient tout juste de rejoindre la communauté Slappyto. Bienvenue ! il y a 3 jours
Torvic_G vient tout juste de rejoindre la communauté Slappyto. Bienvenue ! il y a 6 jours