ConnexionConnexionInscription
B E A D G
94 connectés Aller à Sweepyto Guitare

Amy Winehouse - Valerie [ Artiste ]

Publié par le
18/01/2011
10487 vues
Moyen 1
http://www.youtube.com/watch?v=KU8npcrD448
    
        

Amy Winehouse
Valerie                                   
Back to Black
 

Theme du Couplet et Refrain
G||-----------------------|----------------------|------------------------|------------10--9--8------|
D||------8-----------5----|-----8----------------|-----10-----------------|-----10---------------10--|2x
A||-6--------6----------6-|L--------6----6--6--7-|8---------8----10--9--8-|L---------8---------------|
E||------------6--8-------|-----------6----------|------------8-----------|--------------------------|


Theme du Pre Refrain 
-------------------------|-----------------------|-----------------------|-----------------------|
--6--6--6--6--6--6--6--6-|5--5--5--5--5--5--5--5-|6--6--6--6--6--6--6--6-|5--5--5--5--5--5--5--5-|
-------------------------|-----------------------|-----------------------|-----------------------|
-------------------------|-----------------------|-----------------------|-----------------------|

            
-------------------------|-----------------------|---------------------|-----------------------|
--6--6--6--6--6--6--6--6-|5--5--5--5--5--5--6--7-|8-------------6----7-|8-8---6-6---5-5--------|
-------------------------|-----------------------|----------6-8--------|------------------8-8--|
-------------------------|-----------------------|-----6---------------|-----------------------|


Repeter Couplet, Refrain et Pre Refrain jusqu'à 2:42



2:43 Variation du theme du Pre Refrain 
|---------------------------|--------------------------|---------------------------|---------------------------|
|6---6--6---6--6---6--6---6-|5---5--5---5--5-5-5-------|6---6--6---6--6---6--6---6-|5---5--5---5--5---5--5---5-|
|---------------------------|--------------------5-----|---------------------------|---------------------------|
|---------------------------|----------------------3---|---------------------------|---------------------------|

 
-----------------------------|--------------------------|---------------------|------------------------|
--6---6--6---6------6--5---5-|5---5--5---5--5---5--6--7-|8-------------6----7-|8-8---6-6---5-5-5-------|
----------------3-6----------|--------------------------|----------6-8--------|-------------------8-8--|
-----------------------------|--------------------------|-----6---------------|------------------------|


                                                                             
3:04 Variation Theme du Couplet et Refrain
|----------------------|----------------------|------------------------|------------10-5-10---10-12----|
|-----8-----------5----|-----8----------------|-----10-----------------|-----10---------------------10-|
|6--------6----------6-|L--------6----6-----7-|8---------8----10--9--8-|L---------8--------------------|
|-----------6--8-------|-----------6----------|------------8-----------|-------------------------------|



------------------------|----------------------------|------------------------|-----------------------3--|
-------8-----------5----|-----8----------------------|-----10-----------------|---------5-5--5-6-6--6----|
--6--------6----------6-|L--------6-10-10-10-10-8--6-|8---------8----10--9--8-|L-8-8--8------------------|
-------------6--8-------|----------------------------|------------8-----------|--------------------------|


Theme final 
|-------------------------------|------------------------------|------------------------------|
|--------------------8--10-8-10-|-------------------8--10-8-10-|-------------------8--10-8-10-|
|-6-6-6-6-6---8s-10-------------|6-6-6-6-6---8s-10-------------|8-8-8-8-8---8s-10-------------|
|-------------------------------|------------------------------|------------------------------|


1ere fois				2eme fois
-------------------------------------|	|-------------------------|
------------------------8--10-8-10---|	|-----------3-------------|
--8-8-8-8-8---8s-10------------------|	|-----8-8-8---8---10----11|
-------------------------------------|	|8------------------------|


    
    

1 Commentaire

1 2 3 4 5
1 note
Notes pour Valerie Basse Tab - (Amy Winehouse) | Slappyto : 5/5 sur 1 note
#1
15/11/2012 22:43:15

Yeah !!  

0
0

En Live

JR BASS, escaliyo et grobass ont commenté le topic [HELP CONFIG AMPLI !] de JR BASS il y a 9 heures
Fred18 vient tout juste de rejoindre la communauté Slappyto. Bienvenue ! il y a 10 heures
Escaliyo a voté pour le message de grobass il y a 13 heures
Escaliyo a commenté le topic [Basse pour débuter ] de Patmustang il y a 20 heures
Ray a voté pour le message de grobass il y a 1 jour
Jerem65 et grobass ont commenté le topic [Et vous, vous écoutez quoi maintenant ?] de nono il y a 1 jour