ConnexionConnexionInscription
B E A D G
167 connectés Aller à Sweepyto Guitare

Interpol - 5 (Get the girls) [ Artiste ]

Publié par le
20/01/2011
2542 vues
Débutant 4
http://www.youtube.com/watch?v=s4_xLYltRsw
    
        

    5 (Get the girls) - Interpol
----------------------------------------------------------------------------



At the beggining there is just guitars, but you can do something like this with it. You 
do anything with any muted notes basically

                               INTRO

G|--xx-x--xx-x--------------------------------------------------------------|
D|--xx-x--xx-x---(ETC)------------------------------------------------------|
A|--xx-x--xx-x--------------------------------------------------------------|
E|--xx-x--xx-x--------------------------------------------------------------|

      ( these are tens, elevens and fourteens, not ones threes etc)

G|------------------------1010/1111/14---------------------------|
D|--------12-1313-------------------------------(X12)------------|
A|-8-1010---------10-1212----------------------------------------|
E|---------------------------------------------------------------|

Then it goes

G|-1010/1111/14\-------------------------------------------------------------|
D|------------------(X2)----------------------------------------------------|
A|--------------------------------------------------------------------------|
E|--------------------------------------------------------------------------|

now for the verse, 

G|--------------------------------------------------------------------------|
D|---------3333-------------------------------------------------------------|
A|-------------555566666666-3333/6666---(X4)--------------------------------|
E|-33333333-----------------------------------------------------------------|

 now it goes to the pre chorus which you can do either like this (the intro)


G|------------------------1010/1111/14---------------------------|
D|--------12-1313-------------------------------(X10)------------|
A|-8-1010---------10-1212----------------------------------------|
E|---------------------------------------------------------------|

or do it like this

G|--------------------------------------------------------------------------|
D|-------11-----11/44/7\----------------------------------------------------|
A|------1---0-11--------0----(X5)-------------------------------------------|
E|-1-33---------------------------------------------------------------------|

Now its the chorus, probably the most coolest ever, (as Carlos does it)
it has one of his great little roll-ins to it (thats why you only do X5 of the pre chorus)

G|---------------------------------------------------------------------------|
D|-------------3333----------------------------------------------------------|
A|-----------------555566666666-3333/6666------------------------------------|
E|-01233333333---------------------------------------------------------------|

Or if you really in the mood do this (Carlos does in live version)

G|-------------------------------8-8-5-5-8-8--------------------------------|
D|-------------3-3-3-333----------------------------------------------------|
A|----------------------5555h6666-6-3-3-6-6---------------------------------|
E|-33-3333-3333-------------------------------------------------------------|



| /  slide up
| \  slide down
| h  hammer-on
| p  pull-off
| ~  vibrato
| +  harmonic
| x  Mute note

    
    

0 Commentaires : réagissez !

1 2 3 4 5
0 notes
Aucun commentaire !

En Live

Ray a commenté le topic [G&L M2500 parfait état ] de Ray il y a 1 jour
Stephfff vient tout juste de rejoindre la communauté Slappyto. Bienvenue ! il y a 1 jour
Dji-san vient tout juste de rejoindre la communauté Slappyto. Bienvenue ! il y a 2 jours
Malkofr vient tout juste de rejoindre la communauté Slappyto. Bienvenue ! il y a 3 jours
Grattos95 et Groumph! ont commenté le topic [Pat est décédé] de khan il y a 4 jours
Alexphalippon vient tout juste de rejoindre la communauté Slappyto. Bienvenue ! il y a 4 jours
Wario, nicobasse et Pasc74 ont commenté le topic [GL Kiloton US 890€] de Wario il y a 5 jours
Seeb vient tout juste de rejoindre la communauté Slappyto. Bienvenue ! il y a 5 jours
Nicobasse a commenté le topic [ATK 300 1996 350euros] de vince75018 il y a 5 jours