ConnexionConnexionInscription
B E A D G
156 connectés Aller à Sweepyto Guitare

Grease - You're The One That I Want [ Artiste ]

Publié par le
25/01/2011
15936 vues
Avancé 1
http://www.deezer.com/listen-1143347
    
        

The one that I want (version album)                                          
Grease


Couplet
	A                                                 
G|----------------------|
D|-----------7----5---5-| 6x
A|------7-----------7---|
E|--5-------------------|


 	F                          C                         E                        A
|-----------------------|---------------------5-|------------------------|-----------------------|
|--3--------3------2/-3-|-----------------x-5---|-------6--9-------x-x---|------------7----x---5-|
|------3---------3------|--3---------3----------|--7----------7----------|-------------------7---|
|-----------------------|-------3---------------|----------------------7-|--5----0---------------|


	A
------------------------|
------------7----x---5--|4x
-------7-----------7----|
--5---------------------|



 Refrain                                              
	C    			Em			  A                     F   
|-----------------------|-----------------------|------------------------|----------/5--5-7-5---|
|-----2---5---5-7-5-----|-----5---9---9-10-9----|--------7---9-10-9-7----|------7-------------7-| 2x	
|--3----------------7-5-|--7-----------------10-|-----7---------------10-|--8-------------------|
|-----------------------|-----------------------|--5---------------------|----------------------|


                                                     
|-----------/5--5-7-5---|
|------/7-------------7-|
|--8--------------------|
|-----------------------|


	 C (pentatonique M)                                                                
|---------------------5-|-----------------------|
|----------5----5-7-7---|---------------xs-7--5-| 3x
|--3---7----------------|--3---7---8------------|
|-----------------------|-----------------------|

                     
 	G
------------------------|
----5--5-5-5-5--5--3----| 2x
----------------------5-|
--3---------------------|

et on recommence du début pour le couplet 2
ensuite c'est le refrain répéter plusieurs fois jusquà la fin

    
    

1 Commentaire

1 2 3 4 5
8 notes
Notes pour You're The One That I Want Basse Tab - (Grease) | Slappyto : 4/5 sur 8 notes
#1
24/02/2011 14:03:40
merci a toi
0
0

En Live

Lebollos59 vient tout juste de rejoindre la communauté Slappyto. Bienvenue ! il y a 5 heures
GregRock vient tout juste de rejoindre la communauté Slappyto. Bienvenue ! il y a 8 heures
Chris927 vient tout juste de rejoindre la communauté Slappyto. Bienvenue ! il y a 4 jours
Greeshma vient tout juste de rejoindre la communauté Slappyto. Bienvenue ! il y a 5 jours
Ludo ZEFISH vient tout juste de rejoindre la communauté Slappyto. Bienvenue ! il y a 5 jours
Nicobass1793 vient tout juste de rejoindre la communauté Slappyto. Bienvenue ! il y a 6 jours
Indonesiae vient tout juste de rejoindre la communauté Slappyto. Bienvenue ! il y a 1 semaine
Grandbill a commenté la tablature de Coup_de_pelle il y a 1 semaine
Grandbill a voté pour la tablature de Coup_de_pelle il y a 1 semaine