ConnexionConnexionInscription
B E A D G
307 connectés Aller à Sweepyto Guitare

William bell - Everyday will we like a holiday [ Artiste ]

Publié par le
28/01/2011
4362 vues
Débutant 3
http://www.deezer.com/fr/#music/result/all/will...
    
        

Everyday will be like a holiday                                 
william bell


Intro         
G||---------------------|---------------------|
D||---------------------|---------------------|
A||--5------------------|---------5-----------|
E||---------7-----------|--5------------------|


                                       
 Couplet 1 & 2
-------------------|----------------|------------------------|--------------------------|
-------------------|----------------|------------------------|----------------------4---|
--5----------------|----------------|------------------------|--------4-------5---------|
-------------------|---------2-3-4--|--5------5--5-----0-----|--5-----------------------|



------------------------|----------------------|--7--7-------7--7-----|--7--7-------------------|
--5------5--5----5---4--|-------------7------7-|----------------------|-------------9--7--------|
-------------------5----|--7-------7-----------|--------5----------5--|--------5----------9--7--|
------------------------|----------------------|----------------------|-------------------------|


Variation 1
|-----------------------|-------------------------|-------------------------|---------------------|
|----------------4-5-6--|--7---------7----7---5---|--4----------4--4--7--8--|--9----7----5----7---| x2
|--5--------5-----------|---------7---------5-----|----------4--------------|---------------------|
|--------5--------------|-------------------------|-------------------------|---------------------|


Reprendre à partir de Couplet 1& 2, mais cette fois, jouer 1x la variation 1 et 1x la variation 2

Variation 2
-----------------------|------------------------|-------------------------|----------------------|
----------------4-5-6--|--7---------7----7---5--|--4----------4--4--7--8--|--9----7----5----7----|
-5---------5-----------|---------7---------7----|-----4-------------------|----------------------|
--------5--------------|------------------------|--------2----------------|----------------------|



Couplet 3   
|-------------------|-------------|-----------------------|------------------------|
|-------------------|-------------|-----------------------|-------------------4----|
|--5----------------|-------------|-----------------------|----------4--5----------|
|-------------------|----2--3--4--|--5------5--5-----0----|--5---------------------|

   
------------------------|------------------------|--7--7-------7--7-------|
--5------5--5----5---4--|-------------7--------7-|------------------------|
-------------------5----|--7-------7-------------|--------5----------5----|
------------------------|------------------------|------------------------|


---------------------------|------------------------|--------------------------|
--8--8-------10--8---------|------------------------|-----------------5--6--7--|
--------------------10--8--|--6------sl-10--sl-8----|-sl-6----------6----------|
--------6------------------|------------------------|-----------6--------------|

 
-----------------------|-----------------------|------------------------|
--8--------12----10----|--8---------------5----|--6------6--6----6---5--|
-----------------------|---------5--6----------|-------------------6----|
-----------------------|-----------------------|------------------------|



----------------------|
-------------8--------|
--8-------8-----------|
----------------------|

sl = slide
    
    

0 Commentaires : réagissez !

1 2 3 4 5
0 notes
Aucun commentaire !

En Live

Samy a commenté le topic [La mort de Slappyto?] de kurt il y a 6 heures
Priyanka a commenté le topic [Sugar Defender Reviews] de sugardefendere il y a 1 jour
Vaidic vient tout juste de rejoindre la communauté Slappyto. Bienvenue ! il y a 1 jour
Drvikasnautiya vient tout juste de rejoindre la communauté Slappyto. Bienvenue ! il y a 1 jour
Rishu a commenté le topic [Fast cash offer no collateral required] de sumitihomelen il y a 1 jour
Rishu vient tout juste de rejoindre la communauté Slappyto. Bienvenue ! il y a 1 jour
Priyanka a commenté le topic [Acheter Viagra en ligne] de Acheter Viagra il y a 1 jour
Priyanka et MasterFailure ont commenté le topic [Quelle pédale Detune up/down pour basse ?] de pk.grs il y a 1 jour