ConnexionConnexionInscription
B E A D G
114 connectés Aller à Sweepyto Guitare

Biffy Clyro - A Whole Child Ago [ Artiste ]

Publié par le
29/01/2011
4462 vues
Débutant 3
http://www.deezer.com/listen-722124
    
        

A whole child ago                                        
Biffy Clyro 
Puzzle

Commence à 1'14

Thème de l'intro et Couplet 
|--------------6--6-----|---------------------|---------------------|------------6--6-----|
|--7-----------------7--|------------7--7--4--|--4---------7--7--4--|--4---------------7--| 5x
|-----------------------|--5------------------|---------------------|---------------------|
|-----------------------|---------------------|---------------------|---------------------|


--------------6--6-----|---------------------|---------------------|-----------------|
--7-----------------7--|------------7--7--4--|--4---------7--7--4--|--4--------------|
-----------------------|--5------------------|---------------------|-----------------|
-----------------------|---------------------|---------------------|-----------------|


      
|---------------------|----------------|--------------------------|--------------------------|
|---------------------|----------------|--7--7--7--7--7--7--7--7--|--4--4--4--4--4--4--4--4--| 2x
|--5----5-------------|--5----5--------|--------------------------|--------------------------|
|---------------------|----------------|--------------------------|--------------------------|
                                               

|--------------------|----------------------|
|--------------------|----------------------|
|--2----2------------|--5----5----5----5----|
|--------------------|----------------------|



Refrain 
|--------------------------|--------------------------|--------------------------|
|--------------------------|--------------------------|--------------------------|
|--------------------------|--------------------------|--------------------------|
|--5--5--5--5--5--5--5--5--|--5--5--5--5--5--5--5--5--|--7--7--7--7--7--7--7--7--|

 
--------------------------|--------------------------|--------------------------|
--------------------------|--------------------------|--------------------------|
--5--5--5--5--5--5--5--5--|--------------------------|--------------------------|
--------------------------|--5--5--5--5--5--5--5--5--|--2--2--2--2--2--2--2--2--|

refrain final 1                                		refrain final 2 
|-----------------------|-----------------------|	|----------------------|-----------------|
|-----------------------|-----------------------|	|----------------------|-----------------|
|--5--5--5----5--5--5---|--5--5--5----5--5--5---|	|--5----5----5------5--|--5----5----5----|
|-----------------------|-----------------------|	|----------------------|-----------------|


Couplet


refrain (jouer le Refrain final 2 cette fois)              

Break       
|-----------------------|----------------------|----------------|
|-----------------------|----------------------|----------------|
|-----------------------|--5----5----5----5----|--5-------------|
|---2----2----2----2----|----------------------|----------------|
    
---------------------|----------------------|-------------------|
---------------------|----------------------|-------------------| 2x
---------------------|--5----5----5------5--|--5----5----5------|
--2----2----2--------|----------------------|-------------------|


thème intro                                                                   
|---------------------6--6-----|-----------------------|-----------------------|
|--7------------------------7--|--------------7--7--4--|--4-----------7--7--4--|
|------------------------------|--5--------------------|-----------------------|
|------------------------------|-----------------------|-----------------------|

  
--------------6--6-----|--------------6--6-----|-----------------------|
--4-----------------7--|--7-----------------7--|--------------7--7--4--|
-----------------------|-----------------------|--5--------------------|
-----------------------|-----------------------|-----------------------|


 
-----------------------|--------------------|
--4-----------7--7--4--|--4-----------------|
-----------------------|--------------------|
-----------------------|--------------------|


thème final                                                                                
|--------------------------|
|--------------------------| 4x
|--------------4--4--------|
|--2--2--5--5--------5--5--|
                             				                  
  
|--------------------------|		|----------------------------|
|--------------------------| 3x	 ->	|----------------------------|
|--------------4--4--7--7--|		|--------------4--4----------|
|--2--2--5--5--------------|		|--2--2--5--5--------5--6----|

(fichier guitar pro 5 : http://www.filedropper.com/biffyclyroawholechildago3)
    
    

0 Commentaires : réagissez !

1 2 3 4 5
2 notes
Notes pour A Whole Child Ago Basse Tab - (Biffy Clyro) | Slappyto : 5/5 sur 2 notes
Aucun commentaire !

En Live

Danybass vient tout juste de rejoindre la communauté Slappyto. Bienvenue ! il y a 8 minutes
Noahlb44 vient tout juste de rejoindre la communauté Slappyto. Bienvenue ! il y a 57 minutes
BouBou37 a commenté le topic [Club des Aria pro II =D] de darkkimhari il y a 1 semaine
Abgezehr vient tout juste de rejoindre la communauté Slappyto. Bienvenue ! il y a 1 semaine
Roberti1 vient tout juste de rejoindre la communauté Slappyto. Bienvenue ! il y a 1 semaine
Clemtvnn vient tout juste de rejoindre la communauté Slappyto. Bienvenue ! il y a 1 semaine
Dacris vient tout juste de rejoindre la communauté Slappyto. Bienvenue ! il y a 2 semaines
Silvianajune vient tout juste de rejoindre la communauté Slappyto. Bienvenue ! il y a 2 semaines
Sumoparis vient tout juste de rejoindre la communauté Slappyto. Bienvenue ! il y a 2 semaines
Roomicien vient tout juste de rejoindre la communauté Slappyto. Bienvenue ! il y a 2 semaines