ConnexionConnexionInscription
B E A D G
112 connectés Aller à Sweepyto Guitare

Norah Jones - Creepin 'In [ Artiste ]

Publié par le
04/02/2011
3853 vues
Débutant 2
http://www.deezer.com/listen-3130156
    
        

Norah jones
Creepin 'In                                                                  




Intro                                                                                      
G||-----------------------|----------------------|----------------------|----------------------|
D||-----------------------|----------------------|----------------------|----------------------|
A||--1----------1---------|--1---------1---------|--1---------1---------|--1---------1---------|
E||--------1---------1----|-------1---------1----|-------1---------1----|-------1---------1----|



Couplet                                                                                          
|--------------------------|----------------------|-----------------------|----------------------|
|*-------------------------|--1---------1----1----|--------------------1--|--3---------3---------|
|*--1------------1----1----|-------1--------------|--1---------1----1-----|-------3---------3----|
|-----------1--------------|----------------------|-------1---------------|----------------------|


                                                     (*Eb)                                    
-----------------------|----------------------|----------------------|----------------------|
-----------------------|----------------------|----------------------|----------------------|
--1---------1----1--5--|--6---------6----6----|--1-------------------|--1---------1---------|
-------1---------------|-------6--------------|-------0----1----1----|-------1---------1----|




Refrain                                                                                        
-------------------------|-----------------------|----------------------|----------------------|
--3-------3----1----1----|--------------------1--|--3----3----1----1----|----------------------|
-------------------------|--1---------1----1-----|----------------------|--1---------1----1----|
-------------------------|-------1---------------|----------------------|-------1--------------|

                                
----------------------|-----------------------|
--3----3----5----5----|--3----3-------1------*|
----------------------|----------------------*|
----------------------|-----------------------|


Couplet/Refrain


Solo
|----------------------|----------------------|
|----------------------|----------------------|
|--1---------1---------|--1---------1---------|
|-------1---------1----|-------1---------1----|

  
--------------------|----------------------|----------------------|----------------------|
--------------------|----------------------|----------------------|--1---------1----1----|
--1-----------------|--1-------------/6----|--1---------1----1----|-------1--------------|
--------------------|----------------------|-------1--------------|----------------------|


    
-----------------------|----------------------|----------------------|----------------------|
--------------------1--|--3---------3---------|----------------------|--1---------1----1----|
--1---------1----1-----|-------3---------3----|--1---------1----1----|-------1--------------|
-------1---------------|----------------------|-------1--------------|----------------------|


                                               
      (*Eb)                     
----------------------|----------------------|
----------------------|----------------------|
--1-------------------|--1---------1----1----|
-------0----1----1----|-------1--------------|


Refrain
Couplet
refrain/refrain   



    
    

0 Commentaires : réagissez !

1 2 3 4 5
0 notes
Aucun commentaire !

En Live

Oliveges vient tout juste de rejoindre la communauté Slappyto. Bienvenue ! il y a 1 jour
Clairie vient tout juste de rejoindre la communauté Slappyto. Bienvenue ! il y a 4 jours
Lebon50 vient tout juste de rejoindre la communauté Slappyto. Bienvenue ! il y a 4 jours
JackyLoup vient tout juste de rejoindre la communauté Slappyto. Bienvenue ! il y a 6 jours
Xnrb08888 vient tout juste de rejoindre la communauté Slappyto. Bienvenue ! il y a 1 semaine
OLIVIER.A vient tout juste de rejoindre la communauté Slappyto. Bienvenue ! il y a 1 semaine
Jupiterlovedol vient tout juste de rejoindre la communauté Slappyto. Bienvenue ! il y a 2 semaines
Bitte1 vient tout juste de rejoindre la communauté Slappyto. Bienvenue ! il y a 2 semaines
Midea vient tout juste de rejoindre la communauté Slappyto. Bienvenue ! il y a 2 semaines