ConnexionConnexionInscription
B E A D G
113 connectés Aller à Sweepyto Guitare

Serge Gainsbourg - Vieille canaille (reaggae) [ Artiste ]

Publié par le
30/01/2011
15994 vues
Débutant 2
http://www.deezer.com/listen-884547
    
        

Vieille Canaille
Aux armes et caetera                                
Serge Gainsbourg




  Intro          
G||--------------------|---------------------|--------------------|--------5------------|
D||--5--------8--------|--7------------------|--5--------8--------|--7------------------|
A||--------------------|--------8------------|--------------------|---------------------|
E||--------------------|---------------------|--------------------|---------------------|


 Thème du Couplet
|------------------------|------------------------|------------------------|------------------------|
|----------3--3----------|----------3--3----------|----------3--3----------|----------------5--5----|
|--3-5-3-5---------------|----3-3-3---------------|--3-5-3-5---------------|--3-5-3-5-3--3----------|
|----------------1--1----|----------------1--1----|----------------1--1----|------------------------|



|------------------------|------------------------|------------------------|------------------------|
|----------3--3----------|----------------3--3----|----------3--3----------|----------3--3----------|
|----3-3-3---------------|--3-5-3-5-1--1----------|--3-5-3-5---------------|--3-5-3-5---------------|
|----------------1--1----|------------------------|----------------1--1----|----------------1--1----|


Etc, etc, avec des variations....


    
    

0 Commentaires : réagissez !

1 2 3 4 5
1 note
Notes pour Vieille Canaille (reaggae) Basse Tab - (Serge Gainsbourg) | Slappyto : 5/5 sur 1 note
Aucun commentaire !

En Live

BouBou37 a commenté le topic [Club des Aria pro II =D] de darkkimhari il y a 1 semaine
Abgezehr vient tout juste de rejoindre la communauté Slappyto. Bienvenue ! il y a 1 semaine
Roberti1 vient tout juste de rejoindre la communauté Slappyto. Bienvenue ! il y a 1 semaine
Clemtvnn vient tout juste de rejoindre la communauté Slappyto. Bienvenue ! il y a 1 semaine
Dacris vient tout juste de rejoindre la communauté Slappyto. Bienvenue ! il y a 2 semaines
Silvianajune vient tout juste de rejoindre la communauté Slappyto. Bienvenue ! il y a 2 semaines
Sumoparis vient tout juste de rejoindre la communauté Slappyto. Bienvenue ! il y a 2 semaines
Roomicien vient tout juste de rejoindre la communauté Slappyto. Bienvenue ! il y a 2 semaines
IMilanek vient tout juste de rejoindre la communauté Slappyto. Bienvenue ! il y a 3 semaines
Sylvaiw vient tout juste de rejoindre la communauté Slappyto. Bienvenue ! il y a 3 semaines