ConnexionConnexionInscription
B E A D G
124 connectés Aller à Sweepyto Guitare

Queen - Dragon Attack [ Artiste ]

Publié par le
30/01/2011
5280 vues
Débutant 3
http://www.deezer.com/listen-7856259
    
        

Dragon Attack                                          
Queen
The Game
(guitar pro 5 file http://www.filedropper.com/dragonattack)
                
G||---------------------------------|
D||*------------3--3---------------*| 8x
A||*--5-3---3-5------5-3-0-3-5-----*|
E||-------5-------------------------|

             
|---------------------------------|
|*--0-------0-3--3-0-------0-----*| 4x
|*----3-0-3----------3-0-3-------*|
|---------------------------------|

                
|---------------------------------|
|*--0-------0-3--3-0-------0-----*| 8x
|*----3-0-3----------3-0-3-------*|
|---------------------------------|
             
|---------------------------------|
|*--0-------0-3--3-0-------0-----*| 2x
|*----3-0-3----------3-0-3-------*|
|---------------------------------|
                                                        
     
|-----------0------5---6---7----|----------0----0--------------|
|*--3-3-3-3--------------0------|--3-3-3-3--------3-0---0-----*| 2x
|----------------3---4----------|---------------------3-------*|
|-------------------------------|------------------------------|


  SOLO Batterie                                                                 
             
   
-------------------------------|------------------------------|-------------------------------|
--0-------0-3--3-0-------0-----|--0-------0-3--3-0------0-----|--0-0-----0-3--3-0-------0-----|
----3-0-3----------3-0-3-------|----3-0-3-----------0-3-------|------0-3----------3-0-3-------|
-------------------------------|------------------------------|-------------------------------|


--7-5-2-5-2-1-0------------------|--------------------------------|
----------------3-0-3-0-------0--|--0-3-0-------------------0-----|
------------------------3-0-3----|--------3-0-3~--3-0-0-3-4-------|
---------------------------------|--------------------------------|



-------------------------------|-------------------------------|
--0-------0--------------0-----|--0-------0--------------0-----|
----3-0-3---3--3-0-0-3-4-------|----3-0-3---3--3-3-3-3-4-------|
-------------------------------|-------------------------------|


 Solo guitare  

               
|---------------------|----------------------|------------------------|----------------------|
|---------------/3----|------------------3-2-|--0---------------------|--0-0-----------------|
|---------------------|----------------------|------------------0-3-0-|----------------------|
|---------------------|----------------------|------------------------|----------------------|


 


|---------7--------10---11-0-12----|---------7-----0-------------|
|-----------0--0-3----4------------|-----------0-----3-0---0-----|
|--5-5-5---------------------------|--5-5-5--------------3-------|
|----------------------------------|-----------------------------|


Riff de fin  
|------------------------------|----------------0-0-----------|
|--0-0-------------------------|--0-0------------------3-3----| 2x
|---------3-3------------------|---------3-3------------------|
|----------------3-3----1-1----|------------------------------|



|-----------------0-0-0-0--------|
|*--0-0-------------------3-----*| 4x
|*---------3-3------------------*|
|--------------------------------|


 Variations du riff de fin
---------------0---0---0--------|----------------0---0---0---------|
--0-0-0------------------3------|--0-0-0-0-----------------3---3-3-|
---------3-3-3------------------|----------3-3-3-------------------|
--------------------------------|----------------------------------|



----------------0---0---0---------|----------------0---0---0--------|
--0-0-0-0-----------------3---3-3-|--0---0-0-----------------3-2-3--|
----------3-3-3-------------------|----------3-3--------------------|
----------------------------------|---------------------------------|

 
----------------0---0---0--------|-------------------------------|---------------------------|
--0---0-0-----------------3-2-3--|--0---0-0----------------------|--0------------------------|
----------3-3--------------------|----------3-3------------------|--------3-3----------------|
---------------------------------|----------------3---3---3-1----|---------------3-----1-----|



---------------------------|---------------------------|
--0------------------------|--0------------------------|
--------3-3----------------|--------3-3----------------|
---------------3-----1-----|---------------3-----1-----|


Riff principal
|--------------------------------|
|---0-------0-3--3-0-------0-----| 8x
|-----3-0-3----------3-0-3-------|
|--------------------------------|

    
    

0 Commentaires : réagissez !

1 2 3 4 5
0 notes
Aucun commentaire !

En Live

Glimmerkajal vient tout juste de rejoindre la communauté Slappyto. Bienvenue ! il y a 15 heures
Wario a commenté le topic [videothèque des sons] de mr gone il y a 1 semaine
Lebollos59 vient tout juste de rejoindre la communauté Slappyto. Bienvenue ! il y a 1 semaine
GregRock vient tout juste de rejoindre la communauté Slappyto. Bienvenue ! il y a 1 semaine
Chris927 vient tout juste de rejoindre la communauté Slappyto. Bienvenue ! il y a 1 semaine
Greeshma vient tout juste de rejoindre la communauté Slappyto. Bienvenue ! il y a 1 semaine
Ludo ZEFISH vient tout juste de rejoindre la communauté Slappyto. Bienvenue ! il y a 2 semaines
Nicobass1793 vient tout juste de rejoindre la communauté Slappyto. Bienvenue ! il y a 2 semaines
Indonesiae vient tout juste de rejoindre la communauté Slappyto. Bienvenue ! il y a 2 semaines