ConnexionConnexionInscription
B E A D G
107 connectés Aller à Sweepyto Guitare

Faith No More - Midlife Crisis [ Artiste ]

Publié par le
05/02/2011
3740 vues
Débutant 2
http://www.youtube.com/watch?v=UIuOWv-mLP4
    
        

Le riff est très basique mais il est très bien pour s'échauffer.
Deux petites remarques : il faut étouffer les notes qui sont jouées sur la corde de mi à vide pour
avoir un son bien "haché", 
et il faut bien jouer toutes les notes du refrain (donc pas de hammer-on ni de pull-off).

Tempo = 115
Riff principal (quasiment toute la chanson)

G[-----------------[
D|-----------------|
A|-----------------|
E]-0-0-0-0-0-0-0-0-]

Variation (plupart des transitions)

G[--------------------[
D|--------------------|
A|--------------------|
E]-0-7-0-9-0-10-12\---]

Début et fin des refrains

G[-------------------[
D|-------------------|
A|-------------------|
E]-12\-------0-0-0-0-]

Variation refrain

G[-------------------------[
D|-------------------------|
A|-----------57---575------|
E]-12\------7--------7-----]

Fin du Break et début de l'Outro

G[-----------------[-----------------[-----------------|
D|-----------------|-----------------|-----------------|
A|-----------------|-----------------|-----------------|
E]-7-7-7-7-7-7-7-7-]-7-7-7-7-7-------]-0-------0-0-0-0-|


    
    

0 Commentaires : réagissez !

1 2 3 4 5
1 note
Notes pour Midlife Crisis Basse Tab - (Faith No More) | Slappyto : 4/5 sur 1 note
Aucun commentaire !

En Live

Ben49000 vient tout juste de rejoindre la communauté Slappyto. Bienvenue ! il y a 1 jour
Baki13110 a commenté le topic [Achat Ken Smith Hadrien Feraud] de Baki13110 il y a 2 jours
Domds11 vient tout juste de rejoindre la communauté Slappyto. Bienvenue ! il y a 2 jours
PapaBigBass vient tout juste de rejoindre la communauté Slappyto. Bienvenue ! il y a 4 jours
BASSTHEGROOVE vient tout juste de rejoindre la communauté Slappyto. Bienvenue ! il y a 4 jours
Christ121968, jaydee, sharpei et erix ont commenté le topic [basse avec faible hauteur de corde] de pierrick78 il y a 5 jours
Christ121968 vient tout juste de rejoindre la communauté Slappyto. Bienvenue ! il y a 6 jours
43,65 Hz a voté pour le message de sharpei il y a 6 jours