ConnexionConnexionInscription
B E A D G
104 connectés Aller à Sweepyto Guitare

Living Colour - Pocket of tears [ Artiste ]

Publié par le
06/02/2011
3585 vues
Débutant 2
http://www.youtube.com/watch?v=BNdhEVWBwzE
    
        

Living Coloür
Pocket of Tears                                                                                          
Collideoscope

Drop D (DADG)


 Thème principal
G||------------------------|------------------------|------------------------|-----------------------|
D||------------------------|------------------------|------------------------|-----------------------|
A||------5--5--3--3--3--3--|------------------------|------5--5--3--3--3--3--|-----------------------|
D||0--0--------------------|2--2--2--2--3--3--5--7--|0--0--------------------|2--2--2--2--3--3--2--1-|


Break                                                                                                          

|------------------------|------------------------|------------------------|------------------------|
|------------------------|------------------------|------------------------|------------------------|
|------------------------|------------------------|-1--1--1--1--1--1--1--1-|------------------------|
|-5--5--5--5--5--5--5--5-|-5--5--5--5--5--5--5--5-|------------------------|-3--3--3--3--3--3--3--3-|



    
    

1 Commentaire

1 2 3 4 5
1 note
Notes pour Pocket Of Tears Basse Tab - (Living Colour) | Slappyto : 4/5 sur 1 note
#1
06/02/2011 11:58:21

euh elle marche pas la vidéo 

0
0

En Live

Fiwa62824 vient tout juste de rejoindre la communauté Slappyto. Bienvenue ! il y a 18 heures
Yo_run a commenté le dossier de alper il y a 1 jour
Yo_run a voté pour le dossier de alper il y a 1 jour
Yo_run vient tout juste de rejoindre la communauté Slappyto. Bienvenue ! il y a 1 jour
Gcs79460 vient tout juste de rejoindre la communauté Slappyto. Bienvenue ! il y a 4 jours
Bad+ vient tout juste de rejoindre la communauté Slappyto. Bienvenue ! il y a 5 jours
Dudu67460 vient tout juste de rejoindre la communauté Slappyto. Bienvenue ! il y a 6 jours
Friday1 vient tout juste de rejoindre la communauté Slappyto. Bienvenue ! il y a 6 jours