ConnexionConnexionInscription
B E A D G
123 connectés Aller à Sweepyto Guitare

Gary Moore - Still Got the Blues [ Artiste ]

Publié par le
28/03/2011
6991 vues
Débutant 1
http://www.youtube.com/watch?v=Xx3yXUunEq8
    
        

************************************
* Gary Moore : Still Got the Blues *
************************************

mesure = 6/8, tempo = 54, subdivision (-) = croche
suggestion de réglages :
    micro : 100% manche
    EQ = 100% bass / 50% mid / 50% treble

Solo :
G|------|------|------|------|------|------|------|------|
D|0-----|------|------|----32|------|2-----|----2-|-----2|
A|------|------|3-----|------|2-----|----2-|0----3|0+-03-|
E|------|3-----|------|1-----|------|-----3|------|------|

Couplet :
 |: 2x                       |1                         :|2              
G|------|0-----|------|------|------|------|------|------|------|------|------|------|
D|0-----|------|------|3---32|------|2-----|------|-----2|------|------|------|------|
A|------|------|3-----|------|2-----|----2-|0--2--|3--03-|2-----|2-----|------|------|
E|------|------|------|------|------|-----3|------|------|------|------|000000|000003|

Refrain :
G|------|------|------|------|------|------|------|------|
D|------|------|------|0-----|------|------|----2-|-----2|
A|0-----|------|0-----|------|------|------|0----3|0+-03-|
E|------|0----3|------|------|1-----|0-----|------|------|

Couplet

Refrain 2 :
G|------|------|------|------|------|------|------|------|
D|------|------|------|0-----|------|------|------|------|
A|0-----|------|0-----|------|------|------|0-----|0---01|
E|------|0----3|------|------|1-----|0-----|------|------|

Pont :
G|------|------|------|------|------|------|------|------|------|------|
D|------|2-----|------|------|------|2----2|3--2--|0-----|----2-|-----2|
A|2-----|----2-|0--2--|3---01|2-----|------|------|------|0----3|0+-03-|
E|------|-----3|------|------|------|------|------|------|------|------|

Solo 2 :
G|------|0-----|------|------|------|------|------|------|
D|0-----|------|------|3---32|------|2-----|------|-----2|
A|------|------|3-----|------|2-----|----2-|0--2--|3--03-|
E|------|------|------|------|------|-----3|------|------|

G|------|------|------|------|------|------|------|------|
D|0-----|------|------|----32|------|------|------|------|
A|------|------|3-----|------|2-----|2-----|------|----2-|
E|------|3-----|------|1-----|------|------|000000|0000-3|

Refrain 2 :
 |: 2x                       |1                         :|2
G|------|------|------|------|------|------|------|------|------|------|------|------|
D|------|------|------|0-----|------|------|------|------|------|------|------|------|
A|0-----|------|0-----|------|------|------|0-----|+---2-|------|------|------|------|
E|------|0----3|------|------|1-----|0-----|------|-000-3|1-----|------|0-----|------|

Finale :                                                    >
G|------|------|------|------|------|------|------|------|------|------|------|------|
D|0-----|------|------|----32|------|2-----|------|-----2|0-----|------|------|------|
A|------|------|3-----|------|2-----|----2-|0--2--|3--03-|------|------|3-----|------|
E|------|3-----|------|1-----|------|-----3|------|------|------|3-----|------|1-----|

=========================================================================================================================
Légende : + = étouffer la corde (stopper le son)
          |: Nx :| = répéter N fois le passage entre |: et :|
          |: 2x  |1    :|2     | = lors du premier passage, jouer 1, lors du second passage, jouer 2
          > = en diminuant le volume
=========================================================================================================================

Visitez http://www.ilovetabs.com pour d'autres tablatures "+R" pour guitare basse.

    
    

0 Commentaires : réagissez !

1 2 3 4 5
0 notes
Aucun commentaire !

En Live

Jargenty vient tout juste de rejoindre la communauté Slappyto. Bienvenue ! il y a 9 heures
Parabellum vient tout juste de rejoindre la communauté Slappyto. Bienvenue ! il y a 15 heures
Kichidoll vient tout juste de rejoindre la communauté Slappyto. Bienvenue ! il y a 16 heures
Gozo et koches ont commenté le topic [vds WARWICK Corvette std MIG 650€] de gozo il y a 16 heures
Jeanco a commenté le topic [Jabba Mayones 5 - 850 € - VENDUE] de Donkibass il y a 17 heures
CZout vient tout juste de rejoindre la communauté Slappyto. Bienvenue ! il y a 1 jour
Seby1 a commenté le topic [problème avec mon ME-50B] de shura361 il y a 2 jours
Seby1 a commenté le topic [Compartiment piles jazzbass] de Seby1 il y a 2 jours
Solrelami vient tout juste de rejoindre la communauté Slappyto. Bienvenue ! il y a 2 jours