ConnexionConnexionInscription
B E A D G
99 connectés Aller à Sweepyto Guitare

Tracy Chapman - Talkin' 'bout a Revolution [ Artiste ]

Publié par le
29/03/2011
15103 vues
Débutant 1
http://www.youtube.com/watch?v=SKYWOwWAguk
    
        

**********************************************
* Tracy Chapman : Talkin' 'bout a Revolution *
**********************************************

mesure = 4/4, tempo = 120, subdivision (-) = croche
suggestion de réglages :
    micro : 50% manche / 50% chevalet
    EQ = 100% bass / 50% mid / 50% treble

 |: 23x  :|                 
G|--------|--------|--------|--------|--------|--------|--------|--------|--------|--------|
D|--------|--------|--------|--------|--------|--------|--------|--------|--------|--------|
A|--------|--------|---3----|7--55---|---3----|7--55---|---3----|7--55---|---3----|7--5--7\|
E|--------|------A\|3-------|------7\|3-------|------7\|3-------|------7\|3-------|--------|

G|--------|--------|--------|--------|--------|--------|--------|--------|--------|--------|--------|--------|
D|--------|--------|--------|--------|--------|--------|--------|--------|--------|--------|--------|----====|
A|---3----|7--55---|---3----|7--5----|---3----|7--5--7\|---3----|7--55---|---3----|7--55---|---3----|7--55-C-|
E|3-------|------7\|3-------|-----052|3-------|--------|3-------|------7\|3-------|------7\|3-------|--------|

G|--------|--------|--------|--------|--------|--------|--------|--------|--------|--------|--------|--------|
D|--------|--------|--------|--------|--------|--------|--------|--------|--------|--------|--------|--------|
A|---3----|7--55---|---3----|7--55-7\|---3----|7--55---|---3----|7--5----|---3----|7--55-7\|---3----|7--55-7\|
E|3-------|------7\|3-------|--------|3-------|------7\|3-------|------1/|3-------|--------|3-------|--------|

G|--------|--------|--------|--------|--------|--------|--------|--------|--------|--------|--------|--------|
D|--------|--------|--------|--------|--------|--------|--------|--------|--------|--------|--------|--------|
A|---3----|7--55---|---3----|7--55---|---3----|7--55---|---3----|7--55-7\|---3----|7--55---|---3----|7--55---|
E|3-------|------7\|3-------|-----012|3-------|------7\|3-------|--------|3-------|------7\|3-------|-----052|

G|--------|--------|--------|--------|--------|--------|--------|--------|--------|--------|
D|--------|--------|--------|--------|--------|--------|--------|--------|--------|--------|
A|---3----|7--55---|---3----|7--55---|---3----|7--55-7\|---3----|7--55---|---3----|7--55-7\|
E|3-------|------75|3-------|------05|3-------|--------|3-------|------7\|3-------|--------|

G|--------|--------|--------|--------|--------|--------|--------|--------|--------|
D|--------|--------|--------|--------|--------|--------|--------|--------|--------|
A|---3----|7--55---|---3----|7--55---|---3----|7--55---|---3----|7--55---|--------|
E|3-------|------7\|3-------|------7\|3-------|------7\|3-------|------7\|3-------|

=========================================================================================================================
Légende : \ = glissé vers le bas
          / = glissé vers le haut
          === = glissé sans jouer les notes de passage
          |: Nx :| = répéter N fois le passage entre |: et :|
=========================================================================================================================

Visitez http://www.ilovetabs.com pour d'autres tablatures "+R" pour guitare basse.

    
    

1 Commentaire

1 2 3 4 5
1 note
Notes pour Talkin' 'bout A Revolution Basse Tab - (Tracy Chapman) | Slappyto : 4/5 sur 1 note
#1
31/03/2011 18:28:24
merçi etienne pour cette exelent morceaux de basse bonne gratte!!!!!!!
0
0

En Live

Pasc74 a commenté le topic [ATK 300 1996 350euros] de vince75018 il y a 5 heures
Papeco vient tout juste de rejoindre la communauté Slappyto. Bienvenue ! il y a 1 jour
LeGuiss et bassman59 ont commenté le topic [MultiComp EBS...y en a combien ??] de LeGuiss il y a 2 jours
Gozo et koches ont commenté le topic [FENDER Precision Bass 70'US Japan. ] de koches il y a 2 jours
Chouze a commenté le topic [Schack Elektronik BC 3P Preamp] de zooltan il y a 2 jours
Petros vient tout juste de rejoindre la communauté Slappyto. Bienvenue ! il y a 3 jours
Jeanmichel5050 a commenté le wall de francis65 il y a 4 jours
Tomioux a commenté le topic [vds basse modulus quantum 4] de tomioux il y a 4 jours