ConnexionConnexionInscription
B E A D G
127 connectés Aller à Sweepyto Guitare

SugarHill Gang - Rapper's Delight [ Artiste ]

Publié par le
30/05/2011
16894 vues
Moyen 3
http://www.youtube.com/watch?v=rKTUAESacQM&feat...
    
        

Intro/Ponts : 

G:-----------------------
D:-----------------------
A:----5-7----------7-5---
E:---------------------7-0


Ligne principale :

G:---------------------------------------------------------------
D:------------------------0-2---------------4h5p4----------------
A:------------------0-2-4-----0-0-0--x-00-5-------5-0------------
E:--0-0-0--x-00-2-3---------------------------------------0-2h3p2
    
    

3 Commentaires

1 2 3 4 5
7 notes
Notes pour Rapper's Delight Basse Tab - (SugarHill Gang) | Slappyto : 4/5 sur 7 notes
#3
21/06/2011 19:24:49

ça c'est bon!

0
+1
#2
05/06/2011 11:15:33
 funki yeah
0
+1
#1
01/06/2011 08:54:16
Yeah  
0
+1

En Live

Badassbass vient tout juste de rejoindre la communauté Slappyto. Bienvenue ! il y a 7 heures
Pitoune vient tout juste de rejoindre la communauté Slappyto. Bienvenue ! il y a 13 heures
Papy.vtt vient tout juste de rejoindre la communauté Slappyto. Bienvenue ! il y a 1 jour
Gaiol et escaliyo ont commenté le topic [Où est passé Broz-Reggae-Tabs ?????] de escaliyo il y a 1 jour
Yaip et grobass ont commenté le topic [Association de Mots] de Claypool-Fish! il y a 1 jour
Vikpil vient tout juste de rejoindre la communauté Slappyto. Bienvenue ! il y a 1 jour
Valfaya vient tout juste de rejoindre la communauté Slappyto. Bienvenue ! il y a 2 jours