ConnexionConnexionInscription
B E A D G
141 connectés Aller à Sweepyto Guitare

Plan B - Writing on the wall [ Artiste ]

Publié par le
13/06/2011
3159 vues
Moyen 4
http://www.youtube.com/watch?v=NQ1baVKmrQo
    
        

Writing on the wall                                                   
Plan B

Une chanson qui demande d'avoir les doigts bien déliés, parce que ça galope et ça syncope pas mal
Fichiers guitar pro et pdf ->http://junk1000.free.free.fr/menutabs.html

     Couplet
G|------------------------|-----------------------------|------------------------|--------------------------|
D|--4--4--------------1-3-|--4--4--------4-----6----6-8-|------------------------|------------------------3-|
A|------------------------|------------4-----6----6-----|------------------------|--------------------4-6---|
E|------------------------|-----------------------------|--6--6--------------4-5-|--6--6---------0-6--------|


------------------------|-----------------------------|------------------------|--------------------------|
--4--4--------------1-3-|--4--4--------4-----6----6-8-|------------------------|--------------8-----------|
------------------------|------------4-----6----6-----|------------------------|------------8---8---------|
------------------------|-----------------------------|--6--6--------------4-5-|--6--6------------6---6---|



Pre refrain
---------------------------|--------------------------|---------------------------|-------------------------|
---------------------------|--1--1------1-----1-------|---------------------------|-------------------------|
--2--2------2-----2-----2--|----------------1---------|--4--4------4-----4---L----|--4---4-----4--------1---|
----------------2-----2----|----------------------4---|----------------4--------4-|----4-----4------4-------|

 
---------------------------|--------------------------|---------------------------|-------------------------|
---------------------------|--1--1------1-----1-------|---------------------------|-------------------------|
--2--2------2-----2-----2--|----------------1---------|--4--4------4-----4---L----|-4---4---4------4--------|
----------------2-----2----|----------------------4---|----------------4--------4-|--------------4----2---3-|



Refrain 
----------------------------|-----------8-------------|-----------6--------------|-------------------------|
--------------6-------------|---------------8---------|---------------6----------|-------------------------|
------------------6---------|--6----6---------6---6---|--4----4---------4---4----|--4-----4-----4----------|
--4-------4---------4---4---|-------------------------|------------------------4-|------4-----4----2---3---|


----------------------------|-------------------------|----------6---------------|--------------6--------------|
--------------6-------------|-----------4-------------|--------------6-----------|-----------------6---------3-|
------------------6---------|---------------4---------|--4----4--------4---4-----|--4---4---4--------4---4-6---|
--4-------4---------4---4---|--2----2---------2---2---|-----------------------4--|----4---4--------------------|


On reprend tout du début (couplet, pré refrain, refrain)


Bridge (2:00)
---------------------------|--------------------------|---------------------|------------------------|
------------------------6--|--------------------------|---------------------|------------------------|
---------4------------6----|--------------------------|------4--------------|------------------------|
--6----------4-------------|----4--4---2-4--4--4--2---|--6-------4----------|--4--4--4------2--4--4--|

                
----------------------|-----------------------------|------------------------|------------------------|-----|
----------------------|-----9--9-9-8--8-------------|------------------------|------------------------|-----|
------4---------------|--6--------------------------|---------------------4--|--L--4--4---4---4--4----|-----|
--6-------4-----------|------------------4-4-4-4-4--|--6----6----6--4--6-----|------------------------|--7--|

 
|-----|-----|-----|-----|-----|-----|
|-----|-----|-----|-----|-----|-----| silence
|-----|-----|-----|-----|-----|-----|
|-----|-----|-----|-----|-----|-----|


------------------------|
------------------------| reprise du refrain jusquà la fin
--4--4--4s----11--------|
------------------------|
    
    

1 Commentaire

1 2 3 4 5
1 note
Notes pour Writing On The Wall Basse Tab - (Plan B) | Slappyto : 5/5 sur 1 note
#1
14/06/2011 16:40:02
exelent morceaux
0
0

En Live

RomBass91 a commenté le topic [Vend Carvin USA 6 Cordes] de Rif-Raf il y a 1 jour
Lowje a commenté le topic [besoin de renseignements zoom b3] de domds11 il y a 2 jours
Didoug vient tout juste de rejoindre la communauté Slappyto. Bienvenue ! il y a 2 jours
Hugo0901 vient tout juste de rejoindre la communauté Slappyto. Bienvenue ! il y a 2 jours
Rif-Raf vient tout juste de rejoindre la communauté Slappyto. Bienvenue ! il y a 2 jours
Ichran vient tout juste de rejoindre la communauté Slappyto. Bienvenue ! il y a 2 jours
LouisBasse vient tout juste de rejoindre la communauté Slappyto. Bienvenue ! il y a 5 jours
Kazhamania vient tout juste de rejoindre la communauté Slappyto. Bienvenue ! il y a 5 jours