ConnexionConnexionInscription
B E A D G
152 connectés Aller à Sweepyto Guitare

The Cure - Close To Me [ Artiste ]

Publié par le
14/06/2011
7319 vues
Débutant 2
http://www.youtube.com/watch?v=HpIpI1ga1WM
    
        

                                                            
G||------------------|------------------|------------------|
D||------------------|------------------|------------------|
A||------------------|------------------|------------------|
E||------------------|------------------|------------------|


                                                         
-----------------------------|--------------------------|
-----------------------------|--------------------------|
-----------------------------|--------------------------|
--7---7---7---7-7--11-11-11--|--7---7---7---7-7--9-9-9--|


                                                       
--------------------------|---------------------------|
--------------------------|---------------------------|
--------------------------|---------------------------|
--4---4---4---4-4--6-6-6--|--2---2---2---2-2--0-0-0-0-|


                                                         
-----------------------------|--------------------------|
-----------------------------|--------------------------|
-----------------------------|--------------------------|
--7---7---7---7-7--11-11-11--|--7---7---7---7-7--9-9-9--|


                                                       
--------------------------|---------------------------|
--------------------------|---------------------------|
--------------------------|---------------------------|
--4---4---4---4-4--6-6-6--|--2---2---2---2-2--0-0-0-0-|


                                                         
-----------------------------|--------------------------|
-----------------------------|--------------------------|
-----------------------------|--------------------------|
--7---7---7---7-7--11-11-11--|--7---7---7---7-7--9-9-9--|


                                                       
--------------------------|---------------------------|
--------------------------|---------------------------|
--------------------------|---------------------------|
--4---4---4---4-4--6-6-6--|--2---2---2---2-2--0-0-0-0-|


                                                         
-----------------------------|--------------------------|
-----------------------------|--------------------------|
-----------------------------|--------------------------|
--7---7---7---7-7--11-11-11--|--7---7---7---7-7--9-9-9--|


                                                       
--------------------------|---------------------------|
--------------------------|---------------------------|
--------------------------|---------------------------|
--4---4---4---4-4--6-6-6--|--2---2---2---2-2--0-0-0-0-|


                                                         
-----------------------------|--------------------------|
-----------------------------|--------------------------|
-----------------------------|--------------------------|
--7---7---7---7-7--11-11-11--|--7---7---7---7-7--9-9-9--|


                                                       
--------------------------|---------------------------|
--------------------------|---------------------------|
--------------------------|---------------------------|
--4---4---4---4-4--6-6-6--|--2---2---2---2-2--0-0-0-0-|


                                                         
-----------------------------|--------------------------|
-----------------------------|--------------------------|
-----------------------------|--------------------------|
--7---7---7---7-7--11-11-11--|--7---7---7---7-7--9-9-9--|


                                                       
--------------------------|---------------------------|
--------------------------|---------------------------|
--------------------------|---------------------------|
--4---4---4---4-4--6-6-6--|--2---2---2---2-2--0-0-0-0-|


                                                         
-----------------------------|--------------------------|
-----------------------------|--------------------------|
-----------------------------|--------------------------|
--7---7---7---7-7--11-11-11--|--7---7---7---7-7--9-9-9--|


                                                       
--------------------------|---------------------------|
--------------------------|---------------------------|
--------------------------|---------------------------|
--4---4---4---4-4--6-6-6--|--2---2---2---2-2--0-0-0-0-|


                                                         
-----------------------------|--------------------------|
-----------------------------|--------------------------|
-----------------------------|--------------------------|
--7---7---7---7-7--11-11-11--|--7---7---7---7-7--9-9-9--|


                                                           
--------------------------|-------------------------------|
--------------------------|-------------------------------|
--------------------------|-------------------------------|
--4---4---4---4-4--6-6-6--|--2---2---2---2-2--11-11-11-11-|


                                                       
--------------------------|---------------------------|
--------------------------|---------------------------|
--------------------------|---------------------------|
--0---0---0---0-0--9-9-9--|--0---0---0---0-0--9-9-9-9-|


                                                              
-----------------------------|-------------------------------|
-----------------------------|-------------------------------|
-----------------------------|-------------------------------|
--7---7---7---7-7--11-11-11--|--7---7---7---7-7--11-11-11-11-|


                                                       
--------------------------|---------------------------|
--------------------------|---------------------------|
--------------------------|---------------------------|
--0---0---0---0-0--9-9-9--|--0---0---0---0-0--9-9-9-9-|


                                                              
-----------------------------|-------------------------------|
-----------------------------|-------------------------------|
-----------------------------|-------------------------------|
--7---7---7---7-7--11-11-11--|--7---7---7---7-7--11-11-11-11-|


                                                         
-----------------------------|--------------------------|
-----------------------------|--------------------------|
-----------------------------|--------------------------|
--7---7---7---7-7--11-11-11--|--7---7---7---7-7--9-9-9--|


                                                       
--------------------------|---------------------------|
--------------------------|---------------------------|
--------------------------|---------------------------|
--4---4---4---4-4--6-6-6--|--2---2---2---2-2--0-0-0-0-|


                                                         
-----------------------------|--------------------------|
-----------------------------|--------------------------|
-----------------------------|--------------------------|
--7---7---7---7-7--11-11-11--|--7---7---7---7-7--9-9-9--|


                                                       
--------------------------|---------------------------|
--------------------------|---------------------------|
--------------------------|---------------------------|
--4---4---4---4-4--6-6-6--|--2---2---2---2-2--0-0-0-0-|


                                                         
-----------------------------|--------------------------|
-----------------------------|--------------------------|
-----------------------------|--------------------------|
--7---7---7---7-7--11-11-11--|--7---7---7---7-7--9-9-9--|


                                                       
--------------------------|---------------------------|
--------------------------|---------------------------|
--------------------------|---------------------------|
--4---4---4---4-4--6-6-6--|--2---2---2---2-2--0-0-0-0-|


                                                         
-----------------------------|--------------------------|
-----------------------------|--------------------------|
-----------------------------|--------------------------|
--7---7---7---7-7--11-11-11--|--7---7---7---7-7--9-9-9--|


                                                           
--------------------------|-------------------------------|
--------------------------|-------------------------------|
--------------------------|-------------------------------|
--4---4---4---4-4--6-6-6--|--2---2---2---2-2--11-11-11-11-|


                                                       
--------------------------|---------------------------|
--------------------------|---------------------------|
--------------------------|---------------------------|
--0---0---0---0-0--9-9-9--|--0---0---0---0-0--9-9-9-9-|


                                                              
-----------------------------|-------------------------------|
-----------------------------|-------------------------------|
-----------------------------|-------------------------------|
--7---7---7---7-7--11-11-11--|--7---7---7---7-7--11-11-11-11-|


                                                       
--------------------------|---------------------------|
--------------------------|---------------------------|
--------------------------|---------------------------|
--0---0---0---0-0--9-9-9--|--0---0---0---0-0--9-9-9-9-|


                                                              
-----------------------------|-------------------------------|
-----------------------------|-------------------------------|
-----------------------------|-------------------------------|
--7---7---7---7-7--11-11-11--|--7---7---7---7-7--11-11-11-11-|


                                                         
-----------------------------|--------------------------|
-----------------------------|--------------------------|
-----------------------------|--------------------------|
--7---7---7---7-7--11-11-11--|--7---7---7---7-7--9-9-9--|


                                                       
--------------------------|---------------------------|
--------------------------|---------------------------|
--------------------------|---------------------------|
--4---4---4---4-4--6-6-6--|--2---2---2---2-2--0-0-0-0-|


                                                         
-----------------------------|--------------------------|
-----------------------------|--------------------------|
-----------------------------|--------------------------|
--7---7---7---7-7--11-11-11--|--7---7---7---7-7--9-9-9--|


                                                       
--------------------------|---------------------------|
--------------------------|---------------------------|
--------------------------|---------------------------|
--4---4---4---4-4--6-6-6--|--2---2---2---2-2--0-0-0-0-|


                                                         
-----------------------------|--------------------------|
-----------------------------|--------------------------|
-----------------------------|--------------------------|
--7---7---7---7-7--11-11-11--|--7---7---7---7-7--9-9-9--|


                                                       
--------------------------|---------------------------|
--------------------------|---------------------------|
--------------------------|---------------------------|
--4---4---4---4-4--6-6-6--|--2---2---2---2-2--0-0-0-0-|


                                                         
-----------------------------|--------------------------|
-----------------------------|--------------------------|
-----------------------------|--------------------------|
--7---7---7---7-7--11-11-11--|--7---7---7---7-7--9-9-9--|


                                                  
--------------------------|---------------------||
--------------------------|---------------------||
--------------------------|---------------------||
--4---4---4---4-4--6-6-6--|--2---2---2----------||



    
    

2 Commentaires

1 2 3 4 5
1 note
Notes pour Close To Me Basse Tab - (The Cure) | Slappyto : 5/5 sur 1 note
0
+1
#1
20/06/2011 19:40:38
Salut, sympa ta tab, mais j'arrive pas a comprendre le morcelement de tes mesures !!

Elles font combien de temps ?

Merci
0
0

En Live

RomBass91 a commenté le topic [Vend Carvin USA 6 Cordes] de Rif-Raf il y a 1 jour
Lowje a commenté le topic [besoin de renseignements zoom b3] de domds11 il y a 2 jours
Didoug vient tout juste de rejoindre la communauté Slappyto. Bienvenue ! il y a 2 jours
Hugo0901 vient tout juste de rejoindre la communauté Slappyto. Bienvenue ! il y a 2 jours
Rif-Raf vient tout juste de rejoindre la communauté Slappyto. Bienvenue ! il y a 3 jours
Ichran vient tout juste de rejoindre la communauté Slappyto. Bienvenue ! il y a 3 jours
LouisBasse vient tout juste de rejoindre la communauté Slappyto. Bienvenue ! il y a 5 jours
Kazhamania vient tout juste de rejoindre la communauté Slappyto. Bienvenue ! il y a 5 jours