ConnexionConnexionInscription
B E A D G
145 connectés Aller à Sweepyto Guitare

Téléphone - Cendrillon [ Artiste ]

Publié par le
23/06/2011
31311 vues
Débutant 2
http://www.deezer.com/listen-3111684
    
        

pas de basse pendant l'intro


couplet 1
--------------------------------------------------------------
--------------------------------------------------------------
--0--------5--0--------5--4-----------2--2--2--2--5--5--5--5--
-----0--2--------0--2--------5--0--2--------------------------


refrain x4
--------------------------------------
--------------------------------------
-----------7-----------7--------4--5--
--5--5--5-----4--4--4-----0--2--------


couplet 2
--------------------------------------------------------------------------------
--------------------------------------------------------------------------------
--------------------------------------5--5--5--5--5-----------------------------
--5--5--5--5--4--4--4--4--2--2--2--2-----------------5--5--5--5--4--4--4--4--2--


-----------------------------------------------------------
-----------------------------------------------------------
-----------5--5--5--5--4-----------2--2--2--2--5--5--5--5--
--2--2--2-----------------5--0--2--------------------------


refrain x4


couplet 3
-------------------------------------------------------------------------------
-------------------------------------------------------------------------------
--------------------------------------5--5--5--5-------------------------------
--5--5--5--5--4--4--4--4--2--2--2--2--------------5--5--5--5--4--4--4--4--2--2-


-------------------------------------------------------------------------------
-------------------------------------------------------------------------------
--------5--5--5--5--------------------------------------5--5--5--5--4----------
--2--2--------------5--5--5--5--4--4--4--4--2--2--2--2-----------------5--0--2-


--------------------------
--------------------------
--2--2--2--2--5--5--5--5--
--------------------------

refrain x4


couplet 1 pendant le solo


fin
--------------------------
--------------------------
--------5-----------5-----
--4--2-----5--4--2-----5--


    
    

0 Commentaires : réagissez !

1 2 3 4 5
2 notes
Notes pour Cendrillon Basse Tab - (Téléphone) | Slappyto : 4/5 sur 2 notes
Aucun commentaire !

En Live

Angel a voté pour le message de Wario il y a 2 jours
Steph83136 vient tout juste de rejoindre la communauté Slappyto. Bienvenue ! il y a 4 jours
Jmeposito vient tout juste de rejoindre la communauté Slappyto. Bienvenue ! il y a 5 jours
AlexHarris vient tout juste de rejoindre la communauté Slappyto. Bienvenue ! il y a 6 jours
Ben49000 vient tout juste de rejoindre la communauté Slappyto. Bienvenue ! il y a 1 semaine
Baki13110 a commenté le topic [Achat Ken Smith Hadrien Feraud] de Baki13110 il y a 1 semaine