ConnexionConnexionInscription
B E A D G
138 connectés Aller à Sweepyto Guitare

The White Stripes - Seven Nation Army [ Artiste ]

Publié par le
06/07/2011
8310 vues
Débutant 1
http://www.youtube.com/watch?v=0J2QdDbelmY
    
        

INTRO 

 |:        x4      :|
G|------0-----------|
D|-2--2---2-0-------|
A|------------3--2-+|
E|------------------|

COUPLET

 |:        x8      :|
G|------0-----------|
D|-2--2---2-0-------|
A|------------3--2-+|
E|------------------|


PONT

G|--------------------------------|
D|--------------------------------|
A|--------------------------------|
E|3-3-3-3-3-3-3-3-5-5-5-5-5-5-5-5-|


REFRAIN

 |:                 x2                  :|
G|------0-----------------0--------------|
D|-2--2---2-0--------2--2---2-0--0-------|
A|------------3--2-+------------3--3-2--+|
E|---------------------------------------|

FINALE

Finale
G|------------------------------------9---------------|
D|-2-------------------------------------}-------------|
A|-----------------------------------------------------|
E|-----------------------------------------------------|


    
    

9 Commentaires

1 2 3 4 5
2 notes
Notes pour Seven Nation Army Basse Tab - (The White Stripes) | Slappyto : 5/5 sur 2 notes
#9
05/03/2012 15:07:54

Paprika,moi aussi je fais comme ça,et sa va plus vite :/ ...

0
0
#8
11/07/2011 12:51:42

Je kiffe trop ce morceau merci je vais pouvoir l'apprendre. 

0
0
#7
08/07/2011 19:12:59

On peut aussi essayer d'adapter le morceau pour qu'il soit joué par une basse. Je les ai vu en live, j'ai bien vu qu'il n'y avait pas de basse merci  

0
0
#6
08/07/2011 10:35:02

 

Retirer
Poppyto

Certes, mais en général on fait jouer le bassiste à ce moment là  

 Ouais, mais ça c'est parce que les guitaristes n'ont pas compris qu'avec une guitare baryton, et une boite à rythmes on peut révolutionner le monde du rock. 

 

Chuuuuuuuuuuut, ne dites rien. 

 

0
0
#5
07/07/2011 18:13:32
Perso, j'la joue comme ça :
D|--------------------------------
A|--------------------------------
E|--0--0--3--0--------------------
B|--------------3--1--0-----------
 
0
0

En Live

Wario a commenté le topic [videothèque des sons] de mr gone il y a 4 jours
Lebollos59 vient tout juste de rejoindre la communauté Slappyto. Bienvenue ! il y a 5 jours
GregRock vient tout juste de rejoindre la communauté Slappyto. Bienvenue ! il y a 6 jours
Chris927 vient tout juste de rejoindre la communauté Slappyto. Bienvenue ! il y a 1 semaine
Greeshma vient tout juste de rejoindre la communauté Slappyto. Bienvenue ! il y a 1 semaine
Ludo ZEFISH vient tout juste de rejoindre la communauté Slappyto. Bienvenue ! il y a 1 semaine
Nicobass1793 vient tout juste de rejoindre la communauté Slappyto. Bienvenue ! il y a 1 semaine
Indonesiae vient tout juste de rejoindre la communauté Slappyto. Bienvenue ! il y a 1 semaine
Grandbill a commenté la tablature de Coup_de_pelle il y a 1 semaine