ConnexionConnexionInscription
B E A D G
130 connectés Aller à Sweepyto Guitare

Noir Désir - A ton étoile [ Artiste ]

Publié par le
25/07/2011
9429 vues
Débutant 3
http://www.deezer.com/listen-1581665
    
        

Intro : 

G|-----------------|
D|-----------------|
A|-3--3--1---1-----|
E|---------3-------|x3

Verse :

G|--------------------------------------------------------|
D|----------------------------3-5-3-------1-3-1-----------|
A|-3--3--1---1--3--3--1---1-3-------5-3-1-------3-1-------|
E|---------3------------3---------------------------------|x5

G|---------------------------------------------------|
D|----------------------------3-5-3------------------|
A|-3--3--1---1--3--3--1---1-3-------5-3-1------------|
E|---------3------------3------------------3---------|

G|--------------------------------------------------------|
D|----------------------------3-5-3-------1-3-1-----------|
A|-3--3--1---1--3--3--1---1-3-------5-3-1-------3-1-------|
E|---------3------------3---------------------------------|x5

G|---------------------------------------------------|
D|----------------------------3-5-3------------------|
A|-3--3--1---1--3--3--1---1-3-------5-3-1------------|
E|---------3------------3------------------3---------|

Chorus :

G|--------------------------------------------------------|
D|----------------------------3-5-3-------1-3-1-----------|
A|-3--3--1---1--3--3--1---1-3-------5-3-1-------3-1-------|
E|---------3------------3---------------------------------|x7

G|---------------------------------------------------|
D|----------------------------3-5-3------------------|
A|-3--3--1---1--3--3--1---1-3-------5-3-1------------|
E|---------3------------3------------------3---------|

Verse :

G|--------------------------------------------------------|
D|----------------------------3-5-3-------1-3-1-----------|
A|-3--3--1---1--3--3--1---1-3-------5-3-1-------3-1-------|
E|---------3------------3---------------------------------|x5

G|---------------------------------------------------|
D|----------------------------3-5-3------------------|
A|-3--3--1---1--3--3--1---1-3-------5-3-1------------|
E|---------3------------3------------------3---------|

End : 

G|--------------------------------------------------------|
D|----------------------------3-5-3-------1-3-1-----------|
A|-3--3--1---1--3--3--1---1-3-------5-3-1-------3-1-------|
E|---------3------------3---------------------------------|x8

G|-----|    
D|-----| 
A|-3---|    
E|-----|

    
    

0 Commentaires : réagissez !

1 2 3 4 5
3 notes
Notes pour A Ton Étoile Basse Tab - (Noir Désir) | Slappyto : 4/5 sur 3 notes
Aucun commentaire !

En Live

Glimmerkajal vient tout juste de rejoindre la communauté Slappyto. Bienvenue ! il y a 2 jours
Wario a commenté le topic [videothèque des sons] de mr gone il y a 1 semaine
Lebollos59 vient tout juste de rejoindre la communauté Slappyto. Bienvenue ! il y a 1 semaine
GregRock vient tout juste de rejoindre la communauté Slappyto. Bienvenue ! il y a 1 semaine
Chris927 vient tout juste de rejoindre la communauté Slappyto. Bienvenue ! il y a 2 semaines
Greeshma vient tout juste de rejoindre la communauté Slappyto. Bienvenue ! il y a 2 semaines
Ludo ZEFISH vient tout juste de rejoindre la communauté Slappyto. Bienvenue ! il y a 2 semaines
Nicobass1793 vient tout juste de rejoindre la communauté Slappyto. Bienvenue ! il y a 2 semaines
Indonesiae vient tout juste de rejoindre la communauté Slappyto. Bienvenue ! il y a 2 semaines