ConnexionConnexionInscription
B E A D G
152 connectés Aller à Sweepyto Guitare

Booker T & The MGs - Melting pot [ Artiste ]

Publié par le
25/07/2011
5817 vues
Moyen 2
http://www.youtube.com/watch?v=Rq4FFzDP8Ms
    
        

les plans du morceau. Pas trop sûr de mon coup, corrections bienvenues.
la mise en page est un peu pourrie, format gp4 par mp.

     Q    Q    E  Q    E     Q    Q    Q    E  E     Q    Q    E.  S E  E   
G||-----------------------|-----------------------|------------------------|
D||-----------------------|-----------------------|------------------------|
A||-------7---------------|-------7---------------|-------7----------------|
E||--5---------5--3----4--|--5---------5----3--4--|--5---------5---3-L--2--|


  E  S E  S S E  S E  E  E     E  S E  S S E  S E  E  E   
----------------------------|----------------------------|
----------------------------|----------------------------|
-----0-0--1-2-3--3-1--0-----|-----0-0--1-2-3--3-1--------|
--1----------------------3--|--1-------------------3--4--|


  Q    Q    Q    E  E                       Q    Q    Q    E  E   
-----------------------|    |-----------------------|
-----------------------|    |-----------------------|
-------7---------------|    |-------7---------------|
--5---------5----3--4--|    |--5---------5----3--4--|


  Q    Q    E  Q    E     Q    Q    Q    E  E     Q.     Q    Q    E   
-----------------------|-----------------------|----------------------|
-----------------------|-----------------------|---------7----5-------|
-------7---------------|-------7---------------|--3----------------7--|
--5---------5--3----4--|--5---------5----3--5--|----------------------|


  E  Q    Q    Q    E     Q.     Q    Q    E     E  Q    Q    Q    E   
-----------------------|----------------------|-----------------------|
-----------------------|----------------------|-----------------------|
--3--------------------|---------7----5-------|---------------3----4--|
-----0----1----2----2--|--3----------------7--|--3--3----5------------|


  Q.     Q    Q    E     Q.     Q    Q    E     Q.     Q    Q    E   
---------5------------|---------5------------|---------9----7-------|
--------------7----3--|--------------7----4--|--5----------------9--|
--5-------------------|--5-------------------|----------------------|
----------------------|----------------------|----------------------|


  E.  S E  E  E  E  E  E     Q.     Q    Q    E     E  Q    Q    Q    E   
--------------------------|----------------------|-----------------------|
--5---5-5--5--5-----------|---------7----5-------|-----------------------|
-----------------5--5--4--|--3----------------7--|--3--------------------|
--------------------------|----------------------|-----0----1----2----2--|


  Q.     Q    Q    E     E  Q    Q    Q    E     Q.     Q    Q    E   
----------------------|-----------------------|---------5------------|
----------------------|-----------------------|--------------7----3--|
---------7----5-------|---------------3----4--|--5-------------------|
--3----------------7--|--3--3----5------------|----------------------|


                         |----3----|    |----3----|     
  Q.     Q    Q    E     Q    Q    Q    Q    Q    Q     
---------5------------|--------------------------------|
--------------7----3--|--------------------------------|
--5-------------------|--3--------------3----5----7----|
----------------------|-------5----3-------------------|


  |----3----|    |-----3----|                             
  Q    Q    Q    Q    Q     Q       Q    Q    Q    E  E   
------------5----9----7----------|-----------------------|
--5----7-------------------10----|-----------------------|
---------------------------------|-------7---------------|
---------------------------------|--5---------5----3--4--|


  Q    Q    E  Q    E    
-----------------------||
-----------------------||
-------7---------------||
--5---------5--3----4--||

    
    

0 Commentaires : réagissez !

1 2 3 4 5
1 note
Notes pour Melting Pot Basse Tab - (Booker T & The MGs) | Slappyto : 2/5 sur 1 note
Aucun commentaire !

En Live

Yvesson a commenté le topic [Amateurs de photographie, bon-jour/soir !] de cha0s-the0ry il y a 58 minutes
Yvesson a commenté le topic [Le Topic du Freepost 7] de Vikie il y a 1 heure
Yvesson, sam et YannGGP ont commenté le topic [La mort de Slappyto?] de kurt il y a 1 heure
Glimmerkajal vient tout juste de rejoindre la communauté Slappyto. Bienvenue ! il y a 2 jours
Wario a commenté le topic [videothèque des sons] de mr gone il y a 1 semaine
Lebollos59 vient tout juste de rejoindre la communauté Slappyto. Bienvenue ! il y a 1 semaine
GregRock vient tout juste de rejoindre la communauté Slappyto. Bienvenue ! il y a 1 semaine
Chris927 vient tout juste de rejoindre la communauté Slappyto. Bienvenue ! il y a 2 semaines
Greeshma vient tout juste de rejoindre la communauté Slappyto. Bienvenue ! il y a 2 semaines