ConnexionConnexionInscription
B E A D G
126 connectés Aller à Sweepyto Guitare

Iron maiden - The Trooper [ Artiste ]

Publié par le
25/07/2011
8020 vues
Avancé 1
http://www.youtube.com/watch?v=dTaD9cd8hvw
    
        

intro:
G|-9-9-97--7-7-75--5-5-54--------|---9-97--7-7-75--5-5-54--------|
D|-------9-------7-------5---5---|-------9-------7-------5---5---|x3
A|-------------------------5---5-|-7-----------------------5---5-|
E|-------------------------------|-------------------------------|
                                                                    _
riff:                                                                |
G|-------------------------------|---------------------------------| |
D|---------------------------5---|x2---------------------------5---| |
A|-7-777-777-777-777-777-0-5---5-|---3-333-333-333-333-333-0-5---5-| |
E|-------------------------------|---------------------------------| |x2
                                                                     |
G|-------------------------------|                                   |
D|---------------------------5---|                                   |
A|-7-777-777-777-777-777-0-5---5-|                                   |
E|-------------------------------|                                   |
                                                                    _|
verse:                                                                    
G|-------------------------------------------------|
D|---------5-----------5-----------5-----------5---|
A|-7-----5---5-7-----5---5-3-----5---5-7-----5---5-|
E|-------------------------------------------------|
                                                                   
G|-------------------------------|---------------------------------| 
D|---------------------------5---|x2---------------------------5---| 
A|-7-777-777-777-777-777-0-5---5-|---3-333-333-333-333-333-0-5---5-| 
E|-------------------------------|---------------------------------| 
                                                                     
G|-------------------------------|                                   
D|-------------------------------|                                   
A|-7-777-777-777-777-777-777-777-|                                   
E|-------------------------------|                                   
                                                                    
chorus:
G|-------------------------------------------------------------|
D|-------------------------------------------------------------|
A|-5-555-555-555-555-555-555-555-7-777-777-777-777-777-777-777-|
E|-------------------------------------------------------------|

G|-------------------------------------------------------------|
D|---------------------------------------------------------5---|
A|-5-555-555-555-555-555-555-555-7-777-777-777-777-777-0-5---5-|
E|-------------------------------------------------------------|
                                                                    _
riff:                                                                |
G|-------------------------------|---------------------------------| |
D|---------------------------5---|x2---------------------------5---| |
A|-7-777-777-777-777-777-0-5---5-|---3-333-333-333-333-333-0-5---5-| |
E|-------------------------------|---------------------------------| |x2
                                                                     |
G|-------------------------------|                                   |
D|---------------------------5---|                                   |
A|-5-555-555-555-555-555-0-5---5-|                                   |
E|-------------------------------|                                   |
                                                                    _|
verse:
G|-------------------------------|---------------------------------| 
D|---------------------------5---|x2---------------------------5---| 
A|-7-777-777-777-777-777-0-5---5-|---3-333-333-333-333-333-0-5---5-| 
E|-------------------------------|---------------------------------| 
                                                                     
G|-------------------------------|---------------------------------|
D|---------------------------5---|x3---------------------------5---|
A|-7-777-777-777-777-777-0-5---5-|---3-333-333-333-333-333-0-5---5-|
E|-------------------------------|---------------------------------|

G|-------------------------------|                                   
D|-------------------------------|                                   
A|-7-777-777-777-777-777-777-777-|                                   
E|-------------------------------|

chorus:
G|-------------------------------------------------------------|
D|-------------------------------------------------------------|
A|-5-555-555-555-555-555-555-555-7-777-777-777-777-777-777-777-|
E|-------------------------------------------------------------|

G|-------------------------------------------------------------|
D|---------------------------------------------------------5---|
A|-5-555-555-555-555-555-555-555-7-777-777-777-777-777-0-5---5-|
E|-------------------------------------------------------------|

guitar solo:
G|-----------------------------------------------------5-------7---|
D|---------------------------------------------------5---5---7---7-|x4
A|-7-777-777-777-0-5-555-555-555-0-2-222-222-222-0-3-------5-------|
E|-----------------------------------------------------------------|

G|-----------------------------------------------------5-------7---|
D|-7-777-777-777-0-5-555-555-555-0-2-222-222-222-0-3-3---3-5-5---5-|x4
A|-----------------------------------------------------------------|
E|-----------------------------------------------------------------|
                                                                    _
riff:                                                                |
G|-------------------------------|---------------------------------| |
D|---------------------------5---|x2---------------------------5---| |
A|-7-777-777-777-777-777-0-5---5-|---3-333-333-333-333-333-0-5---5-| |
E|-------------------------------|---------------------------------| |x2
                                                                     |
G|-------------------------------|                                   |
D|---------------------------5---|                                   |
A|-5-555-555-555-555-555-0-5---5-|                                   |
E|-------------------------------|                                   |
                                                                    _|
verse:
G|-------------------------------|---------------------------------| 
D|---------------------------5---|x2---------------------------5---| 
A|-7-777-777-777-777-777-0-5---5-|---3-333-333-333-333-333-0-5---5-| 
E|-------------------------------|---------------------------------| 
                                                                     
G|-------------------------------|---------------------------------|
D|---------------------------5---|x3---------------------------5---|
A|-7-777-777-777-777-777-0-5---5-|---3-333-333-333-333-333-0-5---5-|
E|-------------------------------|---------------------------------|

G|-------------------------------|                                   
D|-------------------------------|                                   
A|-7-777-777-777-777-777-777-777-|                                   
E|-------------------------------|

chorus:
G|-------------------------------------------------------------|
D|-------------------------------------------------------------|
A|-5-555-555-555-555-555-555-555-7-777-777-777-777-777-777-777-|
E|-------------------------------------------------------------|

G|-------------------------------------------------------------|
D|---------------------------------------------------------5---|
A|-5-555-555-555-555-555-555-555-7-777-777-777-777-777-0-5---5-|
E|-------------------------------------------------------------|

outro:
G|---9-97--7-7-75--5-5-54--------|-------|
D|-------9-------7-------5---5---|x4-----|
A|-7-----------------------5---5-|----7\-|
E|-------------------------------|-------|

Tab by : VieuxRenard 

Excuser moi, c'est un petit peu une partition rallonge.
    
    

2 Commentaires

1 2 3 4 5
4 notes
Notes pour The Trooper Basse Tab - (Iron Maiden) | Slappyto : 3/5 sur 4 notes
#2
30/11/2011 12:47:40
Effectivement =), je précise que pour l'intro il est plus aisé d'utilisé la technique du pull of
0
0
#1
20/11/2011 09:40:03
Facile à mettre en place, mais la vitesse est plus dur.
Mais en travaillant régulièrement, on y arrive.
0
+1

En Live

Wario a commenté le topic [videothèque des sons] de mr gone il y a 4 jours
Lebollos59 vient tout juste de rejoindre la communauté Slappyto. Bienvenue ! il y a 5 jours
GregRock vient tout juste de rejoindre la communauté Slappyto. Bienvenue ! il y a 6 jours
Chris927 vient tout juste de rejoindre la communauté Slappyto. Bienvenue ! il y a 1 semaine
Greeshma vient tout juste de rejoindre la communauté Slappyto. Bienvenue ! il y a 1 semaine
Ludo ZEFISH vient tout juste de rejoindre la communauté Slappyto. Bienvenue ! il y a 1 semaine
Nicobass1793 vient tout juste de rejoindre la communauté Slappyto. Bienvenue ! il y a 1 semaine
Indonesiae vient tout juste de rejoindre la communauté Slappyto. Bienvenue ! il y a 1 semaine
Grandbill a commenté la tablature de Coup_de_pelle il y a 1 semaine