ConnexionConnexionInscription
B E A D G
158 connectés Aller à Sweepyto Guitare

Red Hot Chili Peppers - Dosed [ Artiste ]

Publié par le
10/09/2011
5792 vues
Débutant 3
http://www.youtube.com/watch?v=kS-YTlJZOl0
    
        

Couplet : (x14 avec les variations )
Cette ligne est toujours utilisée en dehors des variations
G-|----------------|----------------I
D-|-----4-5-----4-5|-----4-5-----7-5I
A-|-3-3-----3-3----|-5-5-----7-7----I
E-|----------------|----------------I

8th time through
G-|----------------|------------------I
D-|-----4-5-----4-5|-----4-5----------I
A-|-3-3-----3-3----|-5-5-----5/7-5----I
E-|----------------|---------------7--I


Refrain (1:15 ; 1:50)
G---------------------------------------------------------------I
D-5-5-5-5-5---9h10/12-12-12-12--14-14-14-14--7-9-10-10-9-9------I
A-----------------------------------------------------------12--I
E---------------------------------------------------------------I

G--------------------------------------------------------------I
D-5-5-5-5-5-5-5------------------------------------------------I
A-----------------5-5-5-5-5-5-5--7-7-7-7-7-7--3-3-3-3-3-3--7-8-I
E--------------------------------------------------------------I

G------------------------------------------------------------------I
D-5-5-5-5-5--9h10/12-12-12-12---14-14-14-14--16-16-14-10-10-9-9-7-I
A------------------------------------------------------------------I
E------------------------------------------------------------------I

G-----------------------------------------------------------------I
D-5-5-5-5-5-5-5-----------------------------------7-5-------------I
A-------------------5-5-5-5-5-5-5--7-7-7-7-7-7-7------7-5--3-3-3--I
E-----------------------------------------------------------------I

Couplet : (1:51 ; 2:23)

2ème refrain (2:24 ; 3:04)
G------------------------------------------------------------I
D-5-5-5-5-5-5--9-10/12-12-12-10-12--14-16-14--10-10-9-9-7-7--I
A------------------------------------------------------------I                                               x2
E------------------------------------------------------------I

-----------------------------------------------------------I
-5-5-5-5-5-5-5/7/5-----------------------------------------I
-----------------------0-5-5-5--7-7-7-7-7-7--3-3-3-3-3-3-3-I
-----------------------------------------------------------I

Couplet : (3:05 ; 3:44)

Une v&riante du couplet :
G----------------------------------------I
D------4-5-----4-5-------------/14-12-10-I
A-3-3-----3-3-----5-5-5-5-7--------------I
E----------------------------------------I

G-----------------------------------------I
D------4-5-----4-5-----------10h12/14/10--I
A-3-3-----3-3------5-5-5-7----------------I
E-----------------------------------------I

Pont (4:19 ; 4:26)
G-------------------------------------------------------------I
D--------------------------------/10-10-10-10-10-10-10-10-10--I
A-7-7-7-7-7-7-7-7-7-7-7-7-------------------------------------I
E-------------------------------------------------------------I

couplet (4:26 ; 4:53) au moment du solo de John 
Outro
G-------------------------------------------------------------------I
D-------------------------------------------------------------------I
A-3-3-3-3-3-3-3-3-3-3--2-2-2-2-2-2-2-2-2-3-2--0-0-0-0-0-0-0-0-0-----I
E----------------------------------------------------------------3--I


    
    

0 Commentaires : réagissez !

1 2 3 4 5
2 notes
Notes pour Dosed Basse Tab - (Red Hot Chili Peppers) | Slappyto : 5/5 sur 2 notes
Aucun commentaire !

En Live

Glimmerkajal vient tout juste de rejoindre la communauté Slappyto. Bienvenue ! il y a 2 jours
Wario a commenté le topic [videothèque des sons] de mr gone il y a 1 semaine
Lebollos59 vient tout juste de rejoindre la communauté Slappyto. Bienvenue ! il y a 1 semaine
GregRock vient tout juste de rejoindre la communauté Slappyto. Bienvenue ! il y a 1 semaine
Chris927 vient tout juste de rejoindre la communauté Slappyto. Bienvenue ! il y a 2 semaines
Greeshma vient tout juste de rejoindre la communauté Slappyto. Bienvenue ! il y a 2 semaines
Ludo ZEFISH vient tout juste de rejoindre la communauté Slappyto. Bienvenue ! il y a 2 semaines
Nicobass1793 vient tout juste de rejoindre la communauté Slappyto. Bienvenue ! il y a 2 semaines
Indonesiae vient tout juste de rejoindre la communauté Slappyto. Bienvenue ! il y a 2 semaines