ConnexionConnexionInscription
B E A D G
146 connectés Aller à Sweepyto Guitare

Montego Melon - Swan Lake [ Artiste ]

Publié par le
26/08/2011
1942 vues
Débutant 2
http://www.youtube.com/watch?v=zCql-vgVyg8
    
        

Rock stead. A l'ancienne.
repris aussi en 68 par the cats (dub) ou madness au début des années 80.


     S S S S E.  S S E  S Q       S S S S E.  S S E  S Q     
G||----------------------------|----------------------------|
D||--7-7-7---------------------|--7-7-7---------------------|
A||----------7-----------------|----------7-----------------|
E||--------------5-5-5--5-5----|--------------5-5-5--5-5----|


  S S S S E.  S S E  S Q       S S S S E.  S S E  S Q     
----------------------------|----------------------------|
--7-7-7---------------------|--7-7-7---------------------|
----------7---7-8-8--8-8----|----------7-----------------|
----------------------------|--------------5-5-5--5-5----|


  S S S S E.  S S E  S Q       S S S S E.  S S E  S Q     
----------------------------|----------------------------|
--7-7-7---------------------|--7-7-7---------------------|
----------7-----------------|----------7-----------------|
--------------5-5-5--5-5----|--------------5-5-5--5-5----|


  S S S S E.  S S E  S Q       S S S S E.  S S E  S Q     
----------------------------|----------------------------|
--7-7-7---------------------|--7-7-7---------------------|
----------7---7-8-8--8-8----|----------7-----------------|
----------------------------|--------------5-5-5--5-5----|


    S S S S E  S E  E  S E  E     E  E  E  S E  E  S E  E   
-------------------------------|---------------------------|
-------------------------------|---------------------------|
--xg5-5-5---5--5-5--5--5-5--5--|-----7--7--7-7--7--7-7--7--|
-------------------------------|---------------------------|


  E  E  E  S E  E  S E  E     E  E  E  S E  E  S E  E   
---------------------------|---------------------------|
---------------------------|---------------------------|
-----8--8--8-8--8--8-8--8--|-----7--7--7-7--7--7-7--7--|
---------------------------|---------------------------|


  S S S S E  S E  E  S E  E     E  E  E  S E  E  S E  E   
-----------------------------|---------------------------|
-----------------------------|---------------------------|
--5-5-5---5--5-5--5--5-5--5--|-----7--7--7-7--7--7-7--7--|
-----------------------------|---------------------------|


  E  E  E  S E  E  S E  E     E  E  E  S E  E  S E  E   
---------------------------|---------------------------|
---------------------------|-----8--8--8-8--8--8-8--8--|
-----8--8--8-8--8--8-8--8--|---------------------------|
---------------------------|---------------------------|


  E  E  E  S E  E  S E  E     E  E  S E  E  E  S E  E    
---------------------------|---------------------------||
-----9--9--9-9--9--9-9--9--|--------7----------7-------||
---------------------------|---------------------------||
---------------------------|-----5----5-----5----5-----||

    
    

0 Commentaires : réagissez !

1 2 3 4 5
2 notes
Notes pour Swan Lake Basse Tab - (Montego Melon) | Slappyto : 2/5 sur 2 notes
Aucun commentaire !

En Live

Manyak et Wario ont commenté le topic [Photos de vos basses] de lucas il y a 2 heures