ConnexionConnexionInscription
B E A D G
149 connectés Aller à Sweepyto Guitare

Prince & the New Power Generation - Gold Nigga [ Artiste ]

Publié par le
26/08/2011
3228 vues
Débutant 4
http://www.youtube.com/watch?v=yYH0J87ni7s
    
        

Call The law                                                            
Prince & the New power Generation

Un zeste de rapp et de R n' B, sur un ostinato de basse



 thème couplet 

G||--7-----------------5-------------|
D||-----------------7----------------| jouer en boucle
A||----------------------------------|
E||----------------------------------|


 thème solo guitare                                 

G||-----------------------------|
D||---------5-------------------|
A||--7--5-7-----4----4--4-5--6--|  jouer en boucle
E||-----------------------------|
    
    

0 Commentaires : réagissez !

1 2 3 4 5
1 note
Notes pour Gold Nigga Basse Tab - (Prince & The New Power Generation) | Slappyto : 2/5 sur 1 note
Aucun commentaire !

En Live

Mushaloni a commenté le topic [Besoin d'un bricoleur !] de Mushaloni il y a 3 heures
Manyak et Wario ont commenté le topic [Photos de vos basses] de lucas il y a 1 jour