ConnexionConnexionInscription
B E A D G
156 connectés Aller à Sweepyto Guitare

Aretah Franklin - Respect [ Artiste ]

Publié par le
26/08/2011
13321 vues
Moyen 1
http://www.youtube.com/watch?v=z0XAI-PFQcA
    
        

Respect                                                            
Aretha Franklin
Transcription au format guitar pro et pdf ->http://junk1000.free.free.fr/menutabs.html

Intro

     C                         F                       C                         F                     
G||-------------------------|-----------------------|-------------------------|-----------------------|
D||-------------------------|-----------------------|-------------------------|-----------------------|
A||--3--------3---3---------|-----0----1----2----5--|--3----3-----3---3-------|-----0----1----2-------|
E||---------3---3------3----|--1--------------------|-----------3---3------3--|--1-----------------1--|




Couplet (3X)

      G                        F                        G                        F                      
G||-------------------------|------------------------|------------------------|------------------------|
D||--------5--------5--5----|--3---------------3--4--|--5----5--------5--5----|--3---------------3--4--|
A||------------7-5----------|----------3----5--------|-----------7-5----------|----------3----5--------|
E||---3---------------------|-----5------------------|------------------------|-----5------------------|

      G                        F                                           
G||-------------------------|------------------------|
D||--5----5--------5--5-----|--3------------3--------|
A||-----------7-5-----------|----------3-------6--5--|
E||-------------------------|-----5------------------|

     C                         F                        C                         F  
G||-------------------------|------------------------|-------------------------|------------------------|
D||-------------------------|------------------------|-------------------------|------------------------|
A||--3----3--------3--3-----|-----0----1----2----5---|--3----3--------3--3-----|-----0----1----2--------|
E||-----------5-3--------3--|--1---------------------|-----------5-3--------3--|--1-----------------1---|



Solo Saxo

     F#m                                                  B                                                   
G||-------------------------|--------------------------|--------------------------|--------------------------|
D||--4----4-----4--4--4-----|--4--4--4-----4--4--4-----|--------------------------|--------------------------|
A||-----------4----------4--|-----------4-----------4--|--2--2--2-----2--2--2-----|--2--2--2-----2--2--2-----|
E||-------------------------|--------------------------|-----------2-----------2--|-----------2-----------2--|


     F#m                                                    G                                                   
G||---------------------------|--------------------------|--------------------------|--------------------------|
D||--4---4--4-----4--4--4-----|--4--4--4-----4--4--4-----|--5--5--5-----5--5--5-----|--5--5--5-----5--5--5-----|
A||------------4-----------4--|-----------4-----------4--|-----------5-----------5--|-----------5-----------5--|
E||---------------------------|--------------------------|--------------------------|--------------------------|



Couplet (version 2)

G||------------------------|--------------------------|------------------------|------------------------|
D||--5----5--------5--5----|-----3----L------0--3--4--|--5----5--------5--5----|--3------------0--3--4--|
A||-----------7-5----------|--3---------3-1-----------|-----------7-5----------|-----0----1-------------|
E||------------------------|--------------------------|------------------------|------------------------|


     G                        F                        C                         F                     
G||------------------------|------------------------|-------------------------|-----------------------|
D||--5----5--------5--5----|--3------------3--1--0--|-------------------------|-----------------------|
A||-----------7-5----------|-----0----1-------------|--3----3--------3--3-----|-----0----1----2-------|
E||------------------------|------------------------|-----------5-3--------3--|--1-----------------3--|


     C                         F                                                                                                
G||-------------------------|-----------------------|
D||-------------------------|-----------------------|
A||--3----3--------3--3-----|-----0----1----2-------|
E||-----------5-3--------3--|--1--------------------|



Break

G||------------------------|------------------------|------------------------|-----------------------|
D||------------------------|------------------------|------------------------|-----------------------|
A||--3---------------------|------------------------|--3---------------------|-----------------------|
E||---------------------0--|--1------------------3--|---------------------0--|--1--------------------|


Final (8X)

G||--------------------------|------------------------|
D||--------------------------|------------------------|
A||---3----3---1----3--3-----|-----0----1----2----5---|
E||--------------3--------0--|--1---------------------|
    
    

4 Commentaires

1 2 3 4 5
3 notes
Notes pour Respect Basse Tab - (Aretah Franklin) | Slappyto : 5/5 sur 3 notes
#4
20/12/2018 09:42:47

Salut la team je me suis mis sur ce morceau et je m'appercois que j'ai pas les memes doités

et que la tab n'est pas tout a fait juste

ici la covers qui me semble juste https://www.youtube.com/watch?v=W4DBkX6xuJk

il y'a des cordes à vide qui font tout le groove mieux que le la en 5 position voir la vidéo

0
0
#3
28/09/2011 20:03:17
Super bonne idée de titre et je viens tout juste de découvrir le lien pour avoir la version pdf et la version guitar pro je trouve cela tout simplement excellent.
Un grand merci !!!!
0
0
#2
08/09/2011 19:05:52
sa groove ;p, merci à toi
0
0
#1
05/09/2011 11:31:27

Respect à Millepat, merci!

0
0

En Live

Escaliyo et grobass ont commenté le topic [HELP CONFIG AMPLI !] de JR BASS il y a 1 heure
Escaliyo a voté pour le message de grobass il y a 1 heure
Escaliyo a commenté le topic [Basse pour débuter ] de Patmustang il y a 8 heures
Ray a voté pour le message de grobass il y a 19 heures
Jerem65 et grobass ont commenté le topic [Et vous, vous écoutez quoi maintenant ?] de nono il y a 19 heures