ConnexionConnexionInscription
B E A D G
159 connectés Aller à Sweepyto Guitare

James Brown - Take some... Leave some [ Artiste ]

Publié par le
20/09/2011
7471 vues
Moyen 2
http://www.youtube.com/watch?v=WemQ_nPpC8Y
    
        

Riff 1 :
|-----------------------------------------|
|---0--1-----8--7--6--5------0--1---------|
|4---------6------------0-4--------------0|
|-----------------------------------------|

Riff 2 : 
|---------------------|
|---------------------|
|1----1----1-------0--|
|---------------4-----|

Riff 3 :
|---------------------------------1--3----|
|3---------------------3----1--3----------|
|--------X-3------------------------------|
|---------------1-------------------------|

Pont :
|--------------------|
|3--3--4--4----------|
|------------3--3----|
|--------------------|

Ordre :
riff 1 x13
riff 2 x8
riff 1 x6
riff 2 x8
riff 3 x10
pont
rIff 1 x14
riff 2 Jusqu'à la fin avec variation de temps en temps :

|---------------|
|8--------6--7--|
|---------------|
|---6--6--------|

Faut que ça groove ! ;) 
    
    

0 Commentaires : réagissez !

1 2 3 4 5
2 notes
Notes pour Take Some... Leave Some Basse Tab - (James Brown) | Slappyto : 5/5 sur 2 notes
Aucun commentaire !

En Live

Lebollos59 vient tout juste de rejoindre la communauté Slappyto. Bienvenue ! il y a 4 heures
GregRock vient tout juste de rejoindre la communauté Slappyto. Bienvenue ! il y a 7 heures
Chris927 vient tout juste de rejoindre la communauté Slappyto. Bienvenue ! il y a 4 jours
Greeshma vient tout juste de rejoindre la communauté Slappyto. Bienvenue ! il y a 5 jours
Ludo ZEFISH vient tout juste de rejoindre la communauté Slappyto. Bienvenue ! il y a 5 jours
Nicobass1793 vient tout juste de rejoindre la communauté Slappyto. Bienvenue ! il y a 6 jours
Indonesiae vient tout juste de rejoindre la communauté Slappyto. Bienvenue ! il y a 1 semaine
Grandbill a commenté la tablature de Coup_de_pelle il y a 1 semaine
Grandbill a voté pour la tablature de Coup_de_pelle il y a 1 semaine