ConnexionConnexionInscription
B E A D G
56 connectés Aller à Sweepyto Guitare

Amy Winehouse - Cherry (version live) [ Artiste ]

Publié par le
09/10/2011
8693 vues
Débutant 1
http://www.youtube.com/watch?v=xhAJMq3_vww
    
        

Cherry
Amy Winehouse
Version dvd live in London


Couplet

     Dmaj7                     E9                         Em9       A7             Dmaj7                      
G||-------------------------|--------------------------|------------------------|---------------------|
D||-------------------------|--------------------------|----------------7-7-----|--------------7-7----|
A||--5--5------5----5---5-6-|--7--7-----------7-7--5-6-|--7--7---------------7--|--5--5------5--------|
E||-------5-5-----5---5-----|-------7-7--0-------------|-------7-7--5-----------|-------5-5---------5-|


  Dmaj7                     E9                       Em9       A7           Dmaj7                      
-------------------------|------------------------|----------------------|----------------------------|
-------------------------|------------------------|---------------7-7----|----------------------------|
--5--5------5----5---5-6-|--7--7-----------7--5-6-|--7--7--------------7-|--5--5-------5------5-------|
-------5-5-----5---5-----|-------7-7--0--0--------|-------7-7--5---------|--------5-5-----5-7---7-5-7-|



Refrain

    Em9        A7              Dmaj7                                           
|---------------------------|-----------------------------|
|*------------------7-7-----|--------------------7-7-----*| 8X
|*--7---7----------------7--|--5-----5------5------------*|
|---------7-7--5------------|----------5-5------------5---|


Final

     Em                         Dmaj7                          Em                       Dmaj7              
G||--------------------------|------------------------------|------------------------|-------|
D||------------------7-7-----|-------------------7-8-9------|------------------------|-------|
A||--7---7----------------7--|--5-----5-7-7--9---------7-0--|--7---7-----------------|--5----|
E||--------7-7--5------------|------------------------------|--------7-7--5------5---|-------|
    
    

0 Commentaires : réagissez !

1 2 3 4 5
1 note
Notes pour Cherry (version Live) Basse Tab - (Amy Winehouse) | Slappyto : 5/5 sur 1 note
Aucun commentaire !

En Live

Pat, grobass et cdurand ont commenté le topic [Besoin de conseil pour achat basse d'occas'] de cdurand il y a 1 heure
Synchronnn et popolito ont commenté le topic [Stingray 2eq teal green] de popolito il y a 12 heures
Janud et bassman59 ont commenté le topic [Schema de câblage spécial] de Janud il y a 1 jour
EddyCap, grobass et Wario ont commenté le topic [Évaluation prix Fender Jazz Bass FL circa 2004] de EddyCap il y a 1 jour
EddyCap a accepté le message de grobass il y a 1 jour
Grobass a voté pour le message de pat il y a 1 jour
Lasshowl a commenté le topic [Chainage encore et toujours...] de Lasshowl il y a 2 jours
Cdurand vient tout juste de rejoindre la communauté Slappyto. Bienvenue ! il y a 2 jours