ConnexionConnexionInscription
B E A D G
130 connectés Aller à Sweepyto Guitare

Theme Song - Mario Bros, thème. [ Artiste ]

Publié par le
30/11/2011
11176 vues
Débutant 2
http://www.youtube.com/watch?v=MiAxiGZKpGQ
    
        

G|------------------------|---------6------------------|----------------------|---------6------------------|
D|------------------------|-----6-9---7--9--6----------|----------------------|-----6-9---7--9--6----------|
A|-7----------4--6---5--4-|--------------------7--9--6-|-7--------4--6---5--4-|--------------------7--9--6-|
E|---7----4---------------|-7--------------------------|----7--4--------------|-7--------------------------|

G|--------------------------------|--------------9---9--9-|--------------------------------|
D|----9-8-7-5--6------------------|--9-8-7-5--6-----------|----9-8-7-5--6------------------|
A|-7-------------------7-----7--7-|-----------------------|-7-------------------7-----7--9-|
E|---------------7--9-----9-------|-----------------------|---------------7--9-----9-------|

G|----------------|
D|----------------|
A|-10--9--7-------|
E|----------------|


Pas de grosses difficultés si ce n'ai de bien enchainer les notes au bon moment dans la musique.
Bonne chance.

PS: La musique à jouer commence à 00:06 secondes dans la video .
    
    

0 Commentaires : réagissez !

1 2 3 4 5
9 notes
Notes pour Mario Bros, Thème. Basse Tab - (Theme Song) | Slappyto : 3/5 sur 9 notes
Aucun commentaire !

En Live

Lewis a commenté le topic [Ampli pour mon fils] de Lewis il y a 5 heures
Bassman59 a commenté le topic [Ampli pour mon fils] de Lewis il y a 8 heures
Testbl123 vient tout juste de rejoindre la communauté Slappyto. Bienvenue ! il y a 12 heures
Lewis vient tout juste de rejoindre la communauté Slappyto. Bienvenue ! il y a 23 heures
Wario a commenté le topic [videothèque des sons] de mr gone il y a 2 jours
Darkkimhari et LouisBasse ont commenté le topic [Reprendre la basse après des années, quel achat ?] de Kazhamania il y a 2 jours
Rif-Raf et RomBass91 ont commenté le topic [Vend Carvin USA 6 Cordes] de Rif-Raf il y a 3 jours
BirdBlack vient tout juste de rejoindre la communauté Slappyto. Bienvenue ! il y a 3 jours
Bassman59 a commenté le topic [Bi-amplification Basse] de mrcroa il y a 4 jours