ConnexionConnexionInscription
B E A D G
104 connectés Aller à Sweepyto Guitare

Amy Winehouse - Love is a loosing game (live London) [ Artiste ]

Publié par le
03/12/2011
4481 vues
Débutant 4
http://www.youtube.com/watch?v=BqtCmMS7oKY
    
        

Love is a loosing game
Amy Winehouse
Live in London DVD


Intro
             F
G||-------|-------------------|
D||-------|--3----------------|
A||-------|-------------------|
E||-------|-------------------|



Couplet 1
     C                      G                        F                    C                          
G||----------------------|------------------------|--------------------|---------5------5--------|
D||-----------------5s-7-|--5-------5--5-------3--|--3----3--3---------|-------5------5----------|
A||--3----3--3-----------|------------------------|-----------------3--|--3--------3------3--3---|
E||----------------------|------------------------|--------------------|-----------------------3-|

  C                      G                        F                    C                       
----------------------|------------------------|--------------------|-----------------------|
-----------------5s-7-|--5-------5--5-------3--|--3----3--3---------|-----------------------|
--3----3--3-----------|------------------------|-----------------3--|--3-----3--3---0-3--2--|
----------------------|------------------------|--------------------|-----------------------|



Refrain 1
  Am                    Dm                   F                     C                        
---------------------|--------------------|---------------------|--------------5-----------|
---------------------|-----------------3--|--3----3--3----------|---------5-7-----7-5------|
---------------3-----|--5----5--5---------|---------------0--2--|--3----7-------------7----|
--5----5--5-------5--|--------------------|---------------------|--------------------------|

  C                      G                     F                    C                  F
----------------------|---------------------|--------------------|-------------------|---|
-----------------5s-7-|--5---------------3--|--3----3--3---------|-------------------|---|
--3----3--3-----------|---------------------|-----------------3--|--3----3--3--------|---|
----------------------|-------3--3----------|--------------------|-------------------|---|


Couplet 2 (quasiment pareil que le couplet 1)
Refrain 2 (quasiment pareil que le refrain 1)



Couplet 3
     C                      G                     F                    C                        
G||----------------------|---------------------|--------------------|-----------5------5----|
D||-----------------5s-7-|--5---------------3--|--3----3--3---------|---------5------5------|
A||--3----3--3-----------|---------------------|-----------------3--|--3---3------3------3--|
E||----------------------|-------3--3----------|--------------------|-----------------------|

  C                     G                        F                     C                       
---------------------|------------------------|---------------------|----------------------|
---------------------|-------5--5---0-5-0-4-0-|--3----3--3----------|----------------------|
--3----3--3----------|------------------------|---------------0--2--|--3---3-0-3---0-3--2--|
---------------0--1--|--3---------------------|---------------------|----------------------|



Refrain 3
  Am                         Dm                   F                     C                           
--------------------------|--------------------|---------------------|--------5----0-2-5-5---------|
--------------------------|-----------------3--|--3----3--3----------|-----7-----2----------7-5----|
-----------------------7--|--5----5--5---------|---------------0--2--|--3-----------------------7--|
--5----5-0-5-0-5----8-----|--------------------|---------------------|-----------------------------|

  C                          G                     F                        C              
--------------------------|--------------------|--------------------|--------------------|
--------------------------|-----------------3--|--3----3--3---------|--------------------|
--3----3-0-3-0------------|--------------------|--------------------|-------3------------|
---------------0----1--2--|--3---3--3----------|--------------------|--------------------|
    
    

0 Commentaires : réagissez !

1 2 3 4 5
0 notes
Aucun commentaire !

En Live

Martialou mp vient tout juste de rejoindre la communauté Slappyto. Bienvenue ! il y a 4 heures
Pierre v vient tout juste de rejoindre la communauté Slappyto. Bienvenue ! il y a 14 heures
Popolito a commenté le topic [Stingray 2eq teal green] de popolito il y a 15 heures
Popolito a commenté le topic [Mesa Boogie M-Pulse 600] de popolito il y a 15 heures
Fransyl vient tout juste de rejoindre la communauté Slappyto. Bienvenue ! il y a 17 heures
Helio a commenté le topic [basse Warwick THUMB NT 1988] de bigyouth il y a 17 heures
Kata oner et tofe ont commenté le topic [Refaire son sillet avec une baguette en bambou] de darkkimhari il y a 1 jour
43,65 Hz a voté pour le message de Romjé il y a 1 jour