ConnexionConnexionInscription
B E A D G
115 connectés Aller à Sweepyto Guitare

Plan B - She said [ Artiste ]

Publié par le
03/12/2011
3842 vues
Moyen 3
http://www.youtube.com/watch?v=rQjh9H-ymK4&ob=a...
    
        

She said
Plan B

Intro
  Eb                                                                                            
G||-----------------------|-----------------------|-----------------------|-----------------------|
D||-----------------------|-----------------------|-----------------------|-----------------------|
A||--6--------6-----------|--6--------6------6----|--6--------6-----------|--6--------6------6----| 2X
E||-----------------------|-----------------------|-----------------------|-----------------------|


  Bb                                                                                            
-----------------------|-----------------------|-----------------------|-----------------------|
-----------------------|-----------------------|-----------------------|-----------------------|
-----------------------|-----------------------|-----------------------|-----------------------|
--6--------6-----------|--6--------6------6----|--6--------6-----------|--6--------6------6----|


  Eb                                                                                             
-----------------------|-----------------------|-----------------------|----------------------|
-----------------------|-----------------------|-----------------------|----------------------|
--6--------6-----------|--6--------6------6----|--6--------6-----------|--6----6----6----6----|
-----------------------|-----------------------|-----------------------|----------------------|


  Bb                                                                                            
-----------------------|-----------------------|-----------------------|-----------------------|
-----------------------|-----------------------|-----------------------|-----------------------|
-----------------------|-----------------------|-----------------------|-----------------------|
--6--------6-----------|--6--------6------6----|--6--------6-----------|--6--------6------6----|


Batterie (0:40)                        

Couplet

     Eb                                                                                                  
G||------------------------|-------------------------|------------------------|-------------------------|
D||---------------------8--|-----8-----------8-------|---------------------8--|-----8-----------8-------|
A||--6-------6-------------|--6-----8--6--------6----|--6-------6-------------|--6-----8--6--------6----|
E||------------------------|-------------------------|------------------------|-------------------------|


  Bb                                                                                                  
------------------------|-------------------------|------------------------|-------------------------|
---------------------8--|-----8-------------------|---------------------8--|-----8-------------------|
------------------------|--8-----8-----------8----|------------------------|--8-----8--------6--8----|
--6-------6-------------|-----------6-----6-------|--6-------6-------------|-----------6-------------|


  Eb                                                                                                  
------------------------|-------------------------|------------------------|-------------------------|
---------------------8--|-----8--------------8----|---------------------8--|-----8-----------8-------|
--6-------6-------------|--6-----8--6-----8-------|--6-------6-------------|--6-----8--6--------6----|
------------------------|-------------------------|------------------------|-------------------------|


  Bb                                                                                                   
------------------------|-------------------------|------------------------|-------------------------|
---------------------8--|-----8-------------------|---------------------8--|-----8-------------------|
------------------------|--8-----8-----------8----|------------------------|--8-----8--------6--8----|
--6-------6-------------|-----------6-----6-------|--6-------6-------------|-----------6-------------|

     F#                                                    Bb                                                
------------------------|---------8--11--------------|------------------------|-----7-------------------|
------------------------|--8--11------------11-------|------------------------|--8-----8----------------|
--9-------9-------------|-----------------------9----|---------------------8--|-----------8-------------|
---------------------9--|----------------------------|--6-------6-------------|-----------------6--4----|


  F#                                                 Bb                                                
------------------------|-------------------------|------------------------|-------------------------|
---------------------4--|-----4-------------------|------------------------|--8-----8----------------|
------------------------|--4-----4----------------|---------------------8--|-----8-----8-----6--8----|
--2-------2-------------|-----------2-----2--4----|--6-------6-------------|-------------------------|



Refrain

     Eb                                                                                                  
G||------------------------|------------------------|------------------------|-------------------------|
D||------------------------|----------------8-------|------------------------|-----6--7--8-------------|
A||--6-------6-------------|--6-------6--------8----|--6-------6-------------|--6--------------8--6----|
E||---------------------6--|------------------------|---------------------6--|-------------------------|


  Bb                                                                                                 
------------------------|------------------------|------------------------|------------------------|
------------------------|------------------------|------------------------|------------------------|
---------------------8--|------------------------|------------------------|--5--6--7--8------------|
--6-------6-------------|--6-------6-------1s----|--6-------6----------6--|-------------------1----|


  Eb                                                                                                
------------------------|-------------------------|------------------------|-----------------------|
------------------------|-----8----------8--------|------------------------|-----------------------|
--6-------6-------------|--6-----6----------8-----|--6-------6-------------|--6----8----9----11----|
---------------------6--|----------------------6--|---------------------6--|-----------------------|


  Bb                                                 Bb                                                
------------------------|-------------------------|------------------------|-------------------------|
---------------------8--|-----8-------------------|------------------------|-----8-------------------|
------------------------|--8-----8--------6--8----|---------------------8--|--------8-----------8----|
--6-------6-------------|-----------6-------------|--6-------6-------------|--6--------6-----6-------|



Partie Rappée

     Eb                                                                                                
G||------------------------|-------------------8----|------------------------|------------------------|
D||------------------------|----------------8-------|------------------------|------------------------|
A||--6-------6-------------|--6-------6-------------|--6-------6-------------|--6-------6-----8--9----|
E||---------------------6--|------------------------|---------------------6--|------------------------|


  Bb                                                                                                
------------------------|------------------------|------------------------|------------------------|
------------------------|-------------------8----|------------------------|------------------------|
---------------------8--|----------------8-------|---------------------8--|----------------6--8----|
--6-------6-------------|--6-------6-------------|--6-------6-------------|--6-------6-------------|


  Eb                                                                                                
------------------------|------------------------|------------------------|------------------------|
------------------------|-------------------8----|------------------------|------------------------|
--6-------6-------------|--6-------6-----8-------|--6-------6-------------|--6-------6-----8--9----|
---------------------6--|------------------------|---------------------6--|------------------------|


  Bb                                                                                                 
------------------------|------------------------|------------------------|------------------------|
------------------------|-------------------8----|---------------------8--|-----8------------------|
---------------------8--|----------------8-------|------------------------|--8-----8-------1-------|
--6-------6-------------|--6-------6-------------|--6-------6-------------|-----------6-------4----|


  F#                                                 Bb                                                 
------------------------|-------------------------|------------------------|-------------------------|
---------------------4--|-----4-------------------|------------------------|--------8----------------|
------------------------|--4-----4----------------|------------------------|--6--8-----8-----6--8----|
--2-------2-------------|-----------2-----2--4----|--6-------6----------4--|-------------------------|


  F#                                                 Bb                                             

------------------------|-------------------------|------------------------|------------------------|
--4-------4----------4--|-----4-------------------|------------------------|--8-------8--------8----|
------------------------|--4-----4----------------|---------------------8--|----------------8-------|
------------------------|-----------2-----2--4----|--6-------6-------------|------------------------|


reprendre à l'intro...

    
    

1 Commentaire

1 2 3 4 5
1 note
Notes pour She Said Basse Tab - (Plan B) | Slappyto : 4/5 sur 1 note
#1
03/12/2011 18:02:08
Merci à toi pour cette partition!
0
0

En Live

Glimmerkajal vient tout juste de rejoindre la communauté Slappyto. Bienvenue ! il y a 2 jours
Wario a commenté le topic [videothèque des sons] de mr gone il y a 1 semaine
Lebollos59 vient tout juste de rejoindre la communauté Slappyto. Bienvenue ! il y a 1 semaine
GregRock vient tout juste de rejoindre la communauté Slappyto. Bienvenue ! il y a 1 semaine
Chris927 vient tout juste de rejoindre la communauté Slappyto. Bienvenue ! il y a 2 semaines
Greeshma vient tout juste de rejoindre la communauté Slappyto. Bienvenue ! il y a 2 semaines
Ludo ZEFISH vient tout juste de rejoindre la communauté Slappyto. Bienvenue ! il y a 2 semaines
Nicobass1793 vient tout juste de rejoindre la communauté Slappyto. Bienvenue ! il y a 2 semaines
Indonesiae vient tout juste de rejoindre la communauté Slappyto. Bienvenue ! il y a 2 semaines