ConnexionConnexionInscription
B E A D G
146 connectés Aller à Sweepyto Guitare

Hoodoo Gurus - Death Defying [ Artiste ]

Publié par le
07/02/2012
2844 vues
Débutant 3
http://www.youtube.com/watch?v=aRHvTrfpiTI
    
        

*********************************
* Hoo Doo Gurus : Death Defying *
*********************************

mesure = 4/4, tempo = 112, subdivision (-) = croche
suggestion de réglages :
    micro : 50% manche / 50% chevalet
    EQ = 50% bass / 50% mid / 50% treble

Intro :
 |: 2x            :|
G|--------|--------|
D|--------|--------|
A|5--5----|----5---|
E|----0---|3--3---5|

Couplet :
 |: 4x            :|
G|--------|--------|--------|--------|
D|--------|--------|--------|--------|
A|5--5----|----5---|5-------|----5---|
E|----0---|3--3---5|---50---|3--3----|

Couplet 2 :
 |: 4x            :|
G|--------|--------|--------|--------|--------|--------|
D|--------|--------|--------|--------|--------|--------|
A|5--5----|----5---|5-------|----5---|5-------|----5---|
E|----0---|3--3---5|---50---|3--3---5|---50---|3--3----|

Refrain :
 |: 2x                              :|
G|--------|--------|--------|--------|--------|--------|--------|--------|
D|--------|--------|--------|--------|--------|--------|--------|----5---|
A|--34--34|--34---4|--------|55+55+5+|--------|5+5+5+5+|--------|--------|
E|55--55--|55--550-|33+33+3+|--------|3+3+3+3+|--------|55-555-5|55-5----|

Couplet 3 :
                                     |: 2x            :|: 3x            :|
G|--------|--------|--------|--------|--------|--------|--------|--------|--------|--------|
D|--------|--------|--------|--------|--------|--------|--------|--------|--------|--------|
A|5--5----|----5---|5--57---|----5---|5--5----|----5---|5-------|----5---|5-------|54+2+---|
E|----0---|3--3---5|--------|3--3---5|----0---|3--3---5|---50---|3--3---5|---50-+-|-----023|

Refrain 2 :
 |: 2x                              :|                 |: 7x   :|
G|--------|--------|--------|--------|--------|--------|--------|--------|
D|--------|--------|--------|--------|--------|--------|--------|----5---|
A|--34--34|--34---4|--------|55+55+5+|--------|5+5+5+5+|--------|--------|
E|55--55--|55--550-|33+33+3+|--------|3+3+3+3+|--------|55-555-5|55-5----|

Couplet 4 :
 |: 4x            :|
G|--------|--------|--------|--------|--------|--------|
D|--------|--------|--------|--------|--------|--------|
A|5--5----|----5---|5-------|----5-5-|5-------|----5---|
E|----0---|3--3---5|---50---|3--3---5|---50---|3--3---5|

Finale :
                                     |: 3x            :|
G|--------|--------|--------|--------|--------|--------|--------|--------|--------|
D|--------|--------|--------|--------|--------|--------|--------|--------|--------|
A|5-------|----5---|5-------|-2-45---|5-5-----|----5---|5-------|----5---|--------|
E|---50---|3--3---5|---50--3|-------5|---50--0|3--3---5|---50---|3-33----|--------|


=========================================================================================================================
Légende : + = étouffer la corde (stopper le son)
          |: Nx :| = répéter N fois le passage entre |: et :|
=========================================================================================================================

Visitez http://www.ilovetabs.com pour d'autres tablatures "+R" pour guitare basse.

    
    

0 Commentaires : réagissez !

1 2 3 4 5
0 notes
Aucun commentaire !

En Live

Cell a commenté le topic ["recherche" Digitech bass synth wah] de Cell il y a 4 heures
Cell et yvesson ont commenté le topic [Le Topic du Freepost 7] de Vikie il y a 4 heures
Cell a commenté le topic ["recherche" Digitech bass synth wah] de Cell il y a 5 heures
Yvesson a commenté le topic [Amateurs de photographie, bon-jour/soir !] de cha0s-the0ry il y a 18 heures
Yvesson, sam et YannGGP ont commenté le topic [La mort de Slappyto?] de kurt il y a 18 heures
Glimmerkajal vient tout juste de rejoindre la communauté Slappyto. Bienvenue ! il y a 3 jours
Wario a commenté le topic [videothèque des sons] de mr gone il y a 1 semaine
Lebollos59 vient tout juste de rejoindre la communauté Slappyto. Bienvenue ! il y a 1 semaine
GregRock vient tout juste de rejoindre la communauté Slappyto. Bienvenue ! il y a 1 semaine
Chris927 vient tout juste de rejoindre la communauté Slappyto. Bienvenue ! il y a 2 semaines