ConnexionConnexionInscription
B E A D G
117 connectés Aller à Sweepyto Guitare

Plan B - Stay too long [ Artiste ]

Publié par le
21/03/2012
2023 vues
Moyen 1
http://www.youtube.com/watch?v=wauIGhax9xg&ob=a...
    
        

Couplet
G||-----------------------|-------------------------|-----------------------|-------------------------|
D||--3--5--5--------------|-----------5-----3-------|--3--5--5--------------|-----------5-----3-------|
A||--------------------3--|-----1-------------------|--------------------3--|-----1-------------------|
E||-----------------------|-------------------------|-----------------------|-------------------------|


-----------------------|-------------------------|-------------------------|--------------------------|
--3--5--5--------------|-----------5-----3-------|--3--5--5-----------3g5--|--L--3--------------------|
--------------------3--|-----1-------------------|-------------------------|--------5--3--1--3--1-----|
-----------------------|-------------------------|-------------------------|-----------------------3--|



Refrain
-----------------------|----------------------|----------------------|--------------------------|
-----------------------|----------------------|----------------------|--------------------------|
-----------------3-----|-----------------7----|-------------------3--|-----1--------------------|
--1-----------5-----5--|--L--------5--8-------|--3----3--------------|-----------3-----1--1--1--|

                                                                             
----------------------------|----------------------|----------------------|--------------------------|
----------------------------|----------------------|----------------------|--------------------------|
----------------------------|-----------------7----|-------------------3--|-----1--------------------|
--1S------5S-----5S--8S--5--|--L------5----8-------|--3----3--------------|-----------3-----1--1--1--|



Rap                                       
G||-------------------------|------------------------|
D||-------------------------|------------------------| 8X
A||-------------------------|-----6-----6------------|
E||--3--3--3--3--6--6--6----|--L-----------6--8------|



Bridge 1:26-1:38
G||-------------------|-------------------|-------------------|------------------------|-------------------|
D||-------------------|-------------------|-------------------|------------------------|-------------------|
A||-------------------|-------------------|-------------------|------------2--2--3--5--|-------------------|
E||--1----------------|--5----------------|--3----------------|---------3--------------|--1----------------|


-------------------|--------------------------|--------------------------|-----|
-------------------|--5--5--5--3--5--5--5--5--|--5--5--5--3--5--5--5--5--|-----|
-------------------|--------------------------|--------------------------|-----|
--5----------------|--------------------------|--------------------------|-----|


Couplet, refrain...

pdf et guitar pro5 sur Tababass
http://junk1000.free.free.fr/menutabs.html
    
    

0 Commentaires : réagissez !

1 2 3 4 5
1 note
Notes pour Stay Too Long Basse Tab - (Plan B) | Slappyto : 3/5 sur 1 note
Aucun commentaire !

En Live

Flea888 vient tout juste de rejoindre la communauté Slappyto. Bienvenue ! il y a 2 heures
Skydrover a commenté le topic [30 W tout lampes, suffisant ?] de skydrover il y a 3 heures
Golmout80 vient tout juste de rejoindre la communauté Slappyto. Bienvenue ! il y a 14 heures
Skydrover a commenté le topic [30 W tout lampes, suffisant ?] de skydrover il y a 15 heures
Skydrover a commenté le topic [30 W tout lampes, suffisant ?] de skydrover il y a 16 heures