ConnexionConnexionInscription
B E A D G
111 connectés Aller à Sweepyto Guitare

Peter Cincotti - Saint Louis Blues [ Artiste ]

Publié par le
21/03/2012
5150 vues
Débutant 3
http://www.youtube.com/watch?v=CPEpvWYBHjM&feat...
    
        

Intro
     Ebm                                                                                              
G||---------8---8-6-6--8------|--------8---8-6-6--8------|
D||-------------------------8-|------------------------8-|
A||--6---6--------------------|--6--6--------------------|
E||---------------------------|--------------------------|



Couplet (12 mesures)
    Ebm                       Abm                        Ebm                                                   
G|------8---8-6-6--8-------|--------------------------|--------8---8-6-6--8------|-------8---8-6-6--8-------|
D|--------------------8----|--------6---6-4-4--6------|------------------------8-|---------------------8----|
A|6--6---------------------|--------------------------|-6---6--------------------|-6--6---------------------|
E|-----------------------2-|-4---4--------------------|--------------------------|------------------------2-|


  Abm                                                   Ebm                                                  
---------------------------|--------------------------|--------8---8-6-6--8------|-------8---8-6-6--8------|
--------6---6-4-4--6-------|-------6---6-4-4--6-------|------------------------8-|-----------------------8-|
-------------------------6-|--------------------------|-6---6--------------------|-6--6--------------------|
-4---4---------------------|-4--4-------------------6-|--------------------------|-------------------------|


 Bb                        Abm                         Ebm                                                                                     
-------------------------|---------------------------|--------8---8-6-6--8------|-------8---8-6------------|
-------8---8-6-6--8------|--------6---6-4-4--6-----8-|------------------------8-|---------------8--6--4----|
-------------------------|---------------------------|-6---6--------------------|-6--6------------------6--|
-6--6--------------------|-4---4---------------------|--------------------------|--------------------------|



Refrain (10 mesures)
      Ebm7                       2x     Bb7                         4x                             
G|----------8-8--8-6-6-6-8------|----|-----------------------------|----|----|----|
D|------------------------------|----|---------8-8--8-6-6-6-8------|----|----|----|
A|--6----6----------------------|----|-----------------------------|----|----|----|
E|------------------------------|----|--6---6----------------------|----|----|----|

     Ebm7                        2x     Bb7                         2x      
G|----------8-8--8-6-6-6-8------|----|-----------------------------|----|
D|------------------------------|----|---------8-8--8-6-6-6-8------|----|
A|--6----6----------------------|----|-----------------------------|----|
E|------------------------------|----|--6---6----------------------|----|


Couplet, refrain...



pdf et guitar pro5 sur Tababass
http://junk1000.free.free.fr/menutabs.html



    
    

0 Commentaires : réagissez !

1 2 3 4 5
0 notes
Aucun commentaire !

En Live

Veja a commenté le topic [Warwick Thumb NT 5 cordes (1990)] de Veja il y a 49 minutes
Francesco77 vient tout juste de rejoindre la communauté Slappyto. Bienvenue ! il y a 2 heures
Flea888 vient tout juste de rejoindre la communauté Slappyto. Bienvenue ! il y a 23 heures
Skydrover a commenté le topic [30 W tout lampes, suffisant ?] de skydrover il y a 1 jour
Golmout80 vient tout juste de rejoindre la communauté Slappyto. Bienvenue ! il y a 1 jour