ConnexionConnexionInscription
B E A D G
140 connectés Aller à Sweepyto Guitare

Led Zeppelin - Kashmir [ Artiste ]

Publié par le
11/06/2012
6369 vues
Moyen 1
http://www.youtube.com/watch?v=hW_WLxseq0o
    
        

Riff 1-
G-------------7-7-7----
D----------------------
A---5-5-5------------5-
E----------------------

Riff 2 : à approximativement 2:06 & 6:25
G-7/9--7--5-----------------------------------7/9--7--5------------------------------------------
D-------------7------7---5-5--3-3---3-2-0---------------7-----7---5-5--3-3---3-2-0------0--------
A-----------------5--------------------------------------------------------------------------0-2-
E------------------------------------------------------------------------------------------------

Riff 3 : à approximativement 3:22 & 6:37
G---------------------------
D---------------------------
A---------------------------
E---3--------------------5--

    
    

0 Commentaires : réagissez !

1 2 3 4 5
2 notes
Notes pour Kashmir Basse Tab - (Led Zeppelin) | Slappyto : 3/5 sur 2 notes
Aucun commentaire !

En Live

Yvesson a commenté le topic [Amateurs de photographie, bon-jour/soir !] de cha0s-the0ry il y a 43 minutes
Yvesson a commenté le topic [Le Topic du Freepost 7] de Vikie il y a 51 minutes
Yvesson, sam et YannGGP ont commenté le topic [La mort de Slappyto?] de kurt il y a 52 minutes
Glimmerkajal vient tout juste de rejoindre la communauté Slappyto. Bienvenue ! il y a 2 jours
Wario a commenté le topic [videothèque des sons] de mr gone il y a 1 semaine
Lebollos59 vient tout juste de rejoindre la communauté Slappyto. Bienvenue ! il y a 1 semaine
GregRock vient tout juste de rejoindre la communauté Slappyto. Bienvenue ! il y a 1 semaine
Chris927 vient tout juste de rejoindre la communauté Slappyto. Bienvenue ! il y a 2 semaines
Greeshma vient tout juste de rejoindre la communauté Slappyto. Bienvenue ! il y a 2 semaines