ConnexionConnexionInscription
B E A D G
154 connectés Aller à Sweepyto Guitare

Led Zeppelin - Dazed and confused [ Artiste ]

Publié par le
13/06/2012
4151 vues
Moyen 3
http://www.youtube.com/watch?v=auDv6cf2PBM
    
        

  Q  E    Q.   Q.   Q.   E E E
|------|-----------------------|
|------|-----------------------|
|------|-10----9----8----7-----|
|----0-|---------------------0-|


                           ~~~
   Q.   Q.   Q.   E E E    Q.   Q.   Q.   E E E
|-----------------------|------------------------|
|-----------------------|------------------------|
|-----------------------|-10----9----8----7------|
|-10----9----8----7---0-|---------------------0--|


                           1st Verse
                             ~~~~~~~~~~~~~
   Q.   Q.   Q.   E E E      Q.   Q.   Q.   E E E    Q.   Q.   Q.   E E E   4x
|-----------------------||------------------------|-------------------------||
|-----------------------||o-----------------------|------------------------o||
|-----------------------||o-10----9----8----7-----|------------------------o||
|-10----9----8----7---0-||----------------------0-|-10----9----8----7---0---||


 2nd Verse
   ~~~~~~~~~~~~~                                   ~~~~~~~~~~~~~
   Q.   Q.   Q.   E E E    Q.   Q.   Q.   E E E    Q.   Q.   Q.   E E E
|-----------------------|-----------------------|------------------------|
|-----------------------|-----------------------|------------------------|
|-10----9----8----7-----|-----------------------|-10----9----8----7------|
|---------------------0-|-10----9----8----7---0-|---------------------0--|


 9/8               12/8
   Q.   Q.   Q.     E E E S S S S S S E E E S S S S S S
|-----------------|-------------------------------------|
|-----------------|-----------7-9---------------7-9-----|
|-----------------|-------7-9-----7-9-------7-9-----7-9-|
|-10----9----8----|-7-7-7-------------7-7-7-------------|


                                              ~~~
  E E E S S S S S S E E E S S S S S S   Q  E  Q.   Q.   Q.
|-------------------------------------|-----------------------|
|-----------7-9---------------7-9-----|-----------------------|
|-------7-9-----7-9-------7-9-----7-9-|------10----9----8-----|
|-7-7-7-------------7-7-7-------------|-0--0------------------|


  E E E  Q.   Q.   Q.     E E E  Q.   Q.   Q.     E E E  Q.   Q.   Q.
|-----------------------|-----------------------|------------------------||
|-----------------------|-----------------------|------------------------||
|-7---------------------|-------10----9----8----|-7----------------------||
|-----0-10----9----8----|-7---0-----------------|-----0-10----9----8-----||


 3rd Verse
  E E E  Q.   Q.   Q.     E E E  Q.   Q.   Q.     E E E  Q.   Q.   Q.
|-----------------------|-----------------------|------------------------|
|-----------------------|-----------------------|------------------------|
|-------10----9----8----|-7---------------------|-------10----9----8-----|
|-7---0-----------------|-----0-10----9----8----|-7---0------------------|


  E E E  Q.   Q.   Q.     E E E S S S S S S E E E S S S S S S
|-----------------------|--------------------------------------|
|-----------------------|-----------7-9---------------7-9------|
|-7---------------------|-------7-9-----7-9-------7-9-----7-9--|
|-----0-10----9----8----|-7-7-7-------------7-7-7--------------|


                                        Interlude
  E E E S S S S S S E E E S S S S S S    S S S S E Q.   S S S S E Q.
|-------------------------------------||-------------------------------|
|-----------7-9---------------7-9-----||----------------5-5-5-5--------|
|-------7-9-----7-9-------7-9-----7-9-||-7-7-7-7-5--------------7------|
|-7-7-7-------------7-7-7-------------||-------------------------------|


  S S S S E Q.   S S S S E Q.     S S S S E Q.   S S S S E Q.
|-------------------------------|-------------------------------|
|-7-7-7-7--------5-5-5-5--------|----------------5-5-5-5--------|
|---------7--------------7------|-7-7-7-7-5--------------7------|
|-------------------------------|-------------------------------|


  S S S S E Q.   a S S S S E Q.     S S S S E Q.   S S S S E Q.
|---------------------------------|--------------------------------|
|-7-7-7-7--------7s9-9-9-9--------|-7-7-7-7--------5-5-5-5---------|
|---------7----------------7------|---------7--------------7-------|
|---------------------------------|--------------------------------|


  S S S S S S Q.   S S S S E Q.     a S S S S E Q.   S S S S E Q.
|---------------------------------|---------------------------------|
|------------------5-5-5-5--------|-7s9-9-9-9--------7-7-7-7--------|
|-5-5-5-5-5h7--------------7------|-----------7--------------7------|
|---------------------------------|---------------------------------|


  S S S S S S Q.   S S S S S S Q.     S S S S S S Q.   a S S S S E Q.
|-----------------------------------|-----------------------------------|
|------------------5-5-5-5----------|-7-7-7-7----------7s9-9-9-9--------|
|-5-5-5-5-5h7--------------5h7------|---------5h7----------------7------|
|-----------------------------------|-----------------------------------|


  S S S S E Q.   S S S S E Q.     S S S S E Q.   S S S S E Q.
|-------------------------------|-------------------------------|
|-7-7-7-7--------5-5-5-5--------|-5-5-5-5--------7-7-7-7--------|
|---------7--------------7------|---------7--------------7------|
|-------------------------------|-------------------------------|


  a S S S S E Q.   S S S S E Q.     a S S S S E Q.   S S S S E Q.
|---------------------------------|------------------7--------------|
|-7s9-9-9-9--------7-7-7-7--------|-7s9-9-9-9----------7---7--------|
|-----------7--------------7------|-----------7----------7---7------|
|---------------------------------|---------------------------------|


  S S S S E Q.   S S S S E Q.     S S S S E Q.   S S S S E Q.
|-9--------------7--------------|-----9---9--------7---7--------|
|---9---9----------7---7--------|---9---9------------7---7------|
|-----7---7----------7---7------|-7--------------7--------------|
|-------------------------------|-------------------------------|


  S S S S E +Q.   S S S S E Q.     S S S S E Q.   S S S S E Q.
|-----9---9-(9)---7--------------|-------------------------------|
|---9---9-----------7---7--------|-------------------------------|
|-7-------------------7---7------|-7-8-8-8-8------8-8-8-8-8------|
|--------------------------------|-------------------------------|


                                        6/8       4/4
  S S S S E Q.   S S S S E S S S S S S   H.        W
|--------------------------------------|---------|------||
|--------------------------------------|---------|------||
|-8-8-8-8-8------8-8-8-8-8-8-8-8-8-8-8-|-7-------|------||
|--------------------------------------|---------|------||


   Bridge                                   Guitar Solo
    Faster Q=188
    E E E E E E E E   E E E E E E Q   9x     E E E E E E E E
||------------------|-----------------||-||------------------|
||o---------5-7-5---|---------5-7-5--o||-||o---------5-7-5---|
||o-----5-7-------7-|-----5-7--------o||-||o-----5-7-------7-|
||--5-7-------------|-5-7-------------||-||--5-7-------------|


                     Q=188(8=s8)
  E E E E E E Q  22x Q  Q  Q.   E   H..        E
|-----------------||--------------|--------------|
|---------5-7-5--o||--------------|--------------|
|-----5-7--------o||-6--7--7----7-|-7---------10-|
|-5-7-------------||--------------|--------------|


   +W           H..       E   +E  Q  E +E  E Q
|-------------|-------------|--------------------|
|-------------|-------------|--------------------|
|-(10)--------|-7---------5-|-(5)----------------|
|-------------|-------------|-----5--5-(5)-5-5/--|


  Q  Q  E E E  E    +E   E  Q   E  E  Q    H..       E
|----------------|-----------------------|-------------|
|----------------|-----------------------|-------------|
|-7--7--7-7-7S10-|-(10)-10-10--10-10-10S=|=7---------5-|
|----------------|-----------------------|-------------|


  +E  Q.   +H       H..        E    +W
|-----------------|--------------|---------||
|-----------------|--------------|---------||
|-(5)-------------|-7---------10-|-(10)----||
|-----5----(5)----|--------------|---------||


  Slower Q.=52
 12/8
  E E E S S S S S S E E E S S S S S S   E E E S S S S S S E E S S S S S S S S
|-------------------------------------|---------------------------------------|
|-----------7-9---------------7-9-----|-----------7-9-------------7-9-----7-9-|
|-------7-9-----7-9-------7-9-----7-9-|-------7-9-----7-9-----7-9-----7-9-----|
|-7-7-7-------------7-7-7-------------|-7-7-7-------------7-7-----------------|


                                 ~~~
  Q  E  Q.   Q.   Q.     E  E E  Q.   Q.   Q.     E E E  Q.   Q.   Q.
|----------------------|------------------------|------------------------|
|----------------------|------------------------|------------------------|
|------10----9----8----|-7---------------------|-------10----9----8-----|
|-0--0-----------------|------0-10----9----8----|-7---0------------------|


                           4th Verse
  E E E  Q.   Q.   Q.       E E E  Q.   Q.   Q.     E E E  Q.   Q.   Q.
|-----------------------||------------------------|-------------------------||
|-----------------------||o-----------------------|------------------------o||
|-7---------------------||o-------10----9----8----|-7----------------------o||
|-----0-10----9----8----||--7---0-----------------|-----0-10----9----8------||


  E E E S S S S S S E E E S S S S S S   E E E S S S S S S E E E S S S S S S
|-------------------------------------|-------------------------------------||
|-----------7-9---------------7-9-----|-----------7-9---------------7-9-----||
|-------7-9-----7-9-------7-9-----7-9-|-------7-9-----7-9-------7-9-----7-9-||
|-7-7-7-------------7-7-7-------------|-7-7-7-------------7-7-7-------------||


 Outro
  S S S S E Q.   S S S S E Q.     S S S S E Q.   S S S S E Q.
|-------------------------------|----------------7-7-7-7--------|
|----------------7-7-7-7-5------|-9-9-9-9-7--------------9------|
|-7-7-7-7-5---------------------|-------------------------------|
|-------------------------------|-------------------------------|


  S S S S S S +Q   E E E E S S E E   S S S S E E S S E S E E.E E. S
|-9-9-9-9-9s7-(7)--x-----9-9s7-----|-------------9s7-------9S7------|
|----------------------------------|--------------------------------|
|--------------------5s7-----------|-7-7-7-7-5---------5s7--------x-|
|----------------------------------|--------------------------------|


  S E E.E E S S S S S S S S S S S S E
|-----9S7---------------------7-------|
|-------------------------------------|
|-5s7-------0-0-5s7-7-7-7s5-5---5-5-5-|
|-------------------------------------|


  S S S S e S S S S e S S S S e S S S S e
|-----------------------------------------|
|-----------------------------------------|
|-5-5-5-5-5-5-5-5-5-5-5-5-5-5-5-5-5-5-5-5-|
|-----------------------------------------|


  S S S S e S S e E +H.        W
|----------------------------|------*|
|----------------------------|------*|
|-5-5-5-5-5-5-5-5------------|------*|
|-----------------0-(0)------|------*|
    
    

0 Commentaires : réagissez !

1 2 3 4 5
4 notes
Notes pour Dazed And Confused Basse Tab - (Led Zeppelin) | Slappyto : 5/5 sur 4 notes
Aucun commentaire !

En Live

Yvesson a commenté le topic [Amateurs de photographie, bon-jour/soir !] de cha0s-the0ry il y a 57 minutes
Yvesson a commenté le topic [Le Topic du Freepost 7] de Vikie il y a 1 heure
Yvesson, sam et YannGGP ont commenté le topic [La mort de Slappyto?] de kurt il y a 1 heure
Glimmerkajal vient tout juste de rejoindre la communauté Slappyto. Bienvenue ! il y a 2 jours
Wario a commenté le topic [videothèque des sons] de mr gone il y a 1 semaine
Lebollos59 vient tout juste de rejoindre la communauté Slappyto. Bienvenue ! il y a 1 semaine
GregRock vient tout juste de rejoindre la communauté Slappyto. Bienvenue ! il y a 1 semaine
Chris927 vient tout juste de rejoindre la communauté Slappyto. Bienvenue ! il y a 2 semaines
Greeshma vient tout juste de rejoindre la communauté Slappyto. Bienvenue ! il y a 2 semaines