ConnexionConnexionInscription
B E A D G
124 connectés Aller à Sweepyto Guitare

Danakil - Marley [ Artiste ]

Publié par le
22/06/2012
12403 vues
Débutant 4
http://www.youtube.com/watch?v=aFF_8rDJgn0
    
        

G|------------------------| 
D|------------------------|        
A|-----4-55-44--4-4-45544-|    
E|2-2---------------------|  
Le jouez de 0:00 à 0:13 et 0:26 à 1:18 

G|------------2--| 
D|--2-4---2-4----| 
A|4-----4-------5| 
E|---------------| à vous de mettre en rythme :) 
De 1:18 à 1:22 

G|------------------------| 
D|------------------------|        
A|-----4-55-44--4-4-45544-|    
E|2-2---------------------|  
De 1:38 à 1:57 et 2:04 à 2:17 

G|-----------------| 
D|4-2--------------| 
A|----4-2---4-2----| 
E|--------5-----5-2| à vous de mettre en rythme :) 
De 2:17 à 2:22 

G|-------------|-----------| 
D|-------------|-----------|        
A|-----4-55-44-|-4-4-45544-|    
E|2-2----------|-----------| 
De 2:23 à 2:37 et 2:40 (jouez la 2ème partie puis reprenez normalement) à 3:15 

G|----------------| 
D|----------6-----| 
A|--4---6-4------9| 
E|2---4-----------| à vous de mettre en rythme :) 
De 3:16 à 3:20 

G|-------------|-----------| 
D|-------------|-----------|        
A|-----4-55-44-|-4-4-45544-|    
E|2-2----------|-----------| 
De 3:22 à 4:24 

G|---------------------| 
D|---------------------| 
A|----------------11-9-| 
E|2-2-2-5-5-5-9-9------| Pour celui là je suis vraiment pas sur donc si vous trouvez 
quelque chose de mieux dites le moi. De 4:26 à 4:30 

G|-------------|-----------| 
D|-------------|-----------|        
A|-----4-55-44-|-4-4-45544-|    
E|2-2----------|-----------| 
Jouez jusqu'à la fin  


Tablature by Jules  
julio-almagro@sfr.fr
    
    

3 Commentaires

1 2 3 4 5
2 notes
Notes pour Marley Basse Tab - (Danakil) | Slappyto : 4/5 sur 2 notes
#3
25/06/2012 17:41:13
Pour la rythmique c'est aussi parceque mon Mac vient de bloquer et dessus j'avais un soft pour aider à transcrire et donc a capter un peu la rythmique.

Mais super taf.
0
0
#2
24/06/2012 18:36:08

De rien et oui il est vrai que c'est assez dur sans la rythmique  

0
0
#1
23/06/2012 14:13:49
Bravo pour cette transcription de Danakil, si tu as sous la main celle de " Hommes de Paix "
ou le lien en clair : http://www.youtube.com/results?search_query=da...

Je fais faire mon chiant mais c'est pas évident sans la rythmique.

Car c souvent le cas quand sois même on n'arrive pas à transcrire.

Mais encore une fois super boulot et sympa pour le partage !!!!!!

Musicalement

NuDuB
0
+1

En Live

Ray a commenté le topic [Dégazage divers effets ] de Ray il y a 1 jour
Wario a commenté le topic [impédance sur orange terror basse] de bud01000 il y a 2 jours
Nofretnostress et pat ont commenté le topic [Avoir un son de Basse Piccolo ] de gegebassecover il y a 3 jours
Pat et Mushaloni ont commenté le topic [Besoin d'un bricoleur !] de Mushaloni il y a 4 jours
Wario a commenté le topic [darkglass head et leurs cabs] de skydrover il y a 4 jours
Hapexia a commenté le topic [Dégazage divers effets ] de Ray il y a 4 jours
Manoutcho vient tout juste de rejoindre la communauté Slappyto. Bienvenue ! il y a 5 jours
Gwoken94 vient tout juste de rejoindre la communauté Slappyto. Bienvenue ! il y a 1 semaine
Theodorus vient tout juste de rejoindre la communauté Slappyto. Bienvenue ! il y a 1 semaine