ConnexionConnexionInscription
B E A D G
129 connectés Aller à Sweepyto Guitare

The Supermen Lovers - Starlight [ Artiste ]

Publié par le
18/08/2012
10274 vues
Débutant 3
http://www.youtube.com/watch?v=h61QG4s0I3U
    
        

G||-------------5-------------------------------------|
D||-------------------------------3-------------------|
A||-3-----------------------3-------------------------|
E||-------------------------------------3-----4L------|


----------------------------------------------------|
----------------------------------------------------|
--------------6-----------------6-----6-------------|
--4-----------------------4-----------------1L------|


----------------------------------------------------|
--------------1-------------------------------------|
--------------------------------1-----3-------------|
--1-----------------------1-----------------1L------|



---------------------------------------------------||
---------------------------------------------------||
--------------3-----------------3-----3-----1------||
--1-----------------------0------------------------||


L : liaison
    
    

0 Commentaires : réagissez !

1 2 3 4 5
1 note
Notes pour Starlight Basse Tab - (The Supermen Lovers) | Slappyto : 5/5 sur 1 note
Aucun commentaire !

En Live

Itchy67000 vient tout juste de rejoindre la communauté Slappyto. Bienvenue ! il y a 2 jours
Petifumiste a commenté le topic [Ibanez BTB 555 MP 380€] de petifumiste il y a 2 jours
Didier ridoux a commenté le topic [Fernandes APB-100] de Axel Faure il y a 2 jours
Didier ridoux vient tout juste de rejoindre la communauté Slappyto. Bienvenue ! il y a 2 jours
Lardon : Nouvel interview il y a 3 jours
Harryknot vient tout juste de rejoindre la communauté Slappyto. Bienvenue ! il y a 3 jours
Dambass vient tout juste de rejoindre la communauté Slappyto. Bienvenue ! il y a 3 jours
ZumZum et djeroon ont commenté le topic [Octaver ou 5ème corde (Si/B)? ] de djeroon il y a 4 jours
Reymo a commenté le topic [Super Alim pour pedalboard ] de ilanonbass il y a 6 jours